Little Girl - Calica

Chords

01234567891011121314151617181920212223
E
B
G
D
A
E
B
0 1 2 3 4 5 6 7 8 9 10 11 12 13 14 15 16 17 18 19 20 21 22 23
(/) Slide Up  (\) Slide Down  (h) Hammer On  (p) Pull Off  (b) Bend (r) Release (v) Vibrato

Verse:

E|--------------------------------------------------------------------------------------------------------------------------
B|--------------10--------------10--------------10--------------10--------------10--------------10-----------3-----------7--
G|------11--------------11--------------11--------------11--------------11--------------11-------------4-----------7--------
D|--------------------------------------------------------------------------------------------------------------------------
A|--------------------------------------------------------------------------------------------------------------------------
E|--10------10------10------10------10------10------10------10------10------10------10------10------3-----3-----7-----7-----

Pre Chorus

E|--------------------------------------------------------------------------
B|-----------7-----------7-----------5-----------5-----------3-----------3--
G|-----7-----------7-----------6-----------6-----------3-----------3--------
D|--------------------------------------------------------------------------
A|--------------------------------------------------------------------------
E|--7-----7-----7-----7-----5-----5-----5-----5-----3-----3-----3-----3-----

Chorus

E|----------------------------------------------------------
B|--------------10--------------12-----------7-----------7--
G|------11--------------12-------------7-----------7--------
D|----------------------------------------------------------
A|----------------------------------------------------------
E|--10------10------12------12------7-----7-----7-----7-----

End of chorus

E|--------------------------------------------------
B|-----------5-----------5-----------5-----------5--
G|-----6-----------6-----------6-----------6--------
D|--------------------------------------------------
A|--------------------------------------------------
E|--5-----5-----5-----5-----5-----5-----5-----5-----

Bridge

E|-----------------------------------------------------------------------------------------------------
B|--0--2--3--------7--5--2--------0--2--3--------7--5-----------5-----------5-----------5-----------5--
G|--0--2--4--------7--6--2--------0--2--4--------7--6-----6-----------6-----------6-----------6--------
D|-----------------------------------------------------------------------------------------------------
A|-----------------------------------------------------------------------------------------------------
E|--0--2--3--------7--5--2--------0--2--3--------7--5--5-----5-----5-----5-----5-----5-----5-----5-----

							http://www.guitartabcreator.com
Tab Notes
Song goes: Verse, Pre chorus, Chorus, Verse, Pre Chorus, Chorus, Bridge, Chorus.
Instruments
{"strings":[[[".",".",".",".",".",".",".",".",".",".",".",".",".",".",".",".",".",".",".",".",".",".",".",".",".",".",".",".",".",".",".","."],[".",".",".",10,".",".",".",10,".",".",".",10,".",".",".",10,".",".",".",10,".",".",".",10,".",".",".",3,".",".",".",7],[".",11,".",".",".",11,".",".",".",11,".",".",".",11,".",".",".",11,".",".",".",11,".",".",".",4,".",".",".",7,".","."],[".",".",".",".",".",".",".",".",".",".",".",".",".",".",".",".",".",".",".",".",".",".",".",".",".",".",".",".",".",".",".","."],[".",".",".",".",".",".",".",".",".",".",".",".",".",".",".",".",".",".",".",".",".",".",".",".",".",".",".",".",".",".",".","."],[10,".",10,".",10,".",10,".",10,".",10,".",10,".",10,".",10,".",10,".",10,".",10,".",3,".",3,".",7,".",7,"."]],[[".",".",".",".",".",".",".",".",".",".",".",".",".",".",".",".",".",".",".",".",".",".",".","."],[".",".",".",7,".",".",".",7,".",".",".",5,".",".",".",5,".",".",".",3,".",".",".",3],[".",7,".",".",".",7,".",".",".",6,".",".",".",6,".",".",".",3,".",".",".",3,".","."],[".",".",".",".",".",".",".",".",".",".",".",".",".",".",".",".",".",".",".",".",".",".",".","."],[".",".",".",".",".",".",".",".",".",".",".",".",".",".",".",".",".",".",".",".",".",".",".","."],[7,".",7,".",7,".",7,".",5,".",5,".",5,".",5,".",3,".",3,".",3,".",3,"."]],[[".",".",".",".",".",".",".",".",".",".",".",".",".",".",".","."],[".",".",".",10,".",".",".",12,".",".",".",7,".",".",".",7],[".",11,".",".",".",12,".",".",".",7,".",".",".",7,".","."],[".",".",".",".",".",".",".",".",".",".",".",".",".",".",".","."],[".",".",".",".",".",".",".",".",".",".",".",".",".",".",".","."],[10,".",10,".",12,".",12,".",7,".",7,".",7,".",7,"."]],[[".",".",".",".",".",".",".",".",".",".",".",".",".",".",".","."],[".",".",".",5,".",".",".",5,".",".",".",5,".",".",".",5],[".",6,".",".",".",6,".",".",".",6,".",".",".",6,".","."],[".",".",".",".",".",".",".",".",".",".",".",".",".",".",".","."],[".",".",".",".",".",".",".",".",".",".",".",".",".",".",".","."],[5,".",5,".",5,".",5,".",5,".",5,".",5,".",5,"."]],[[".",".",".","_","_",".",".",".","_","_",".",".",".","_","_",".",".",".",".",".",".",".",".",".",".",".",".",".",".",".",".",".","."],[0,2,3,"_","_",7,5,2,"_","_",0,2,3,"_","_",7,5,".",".",".",5,".",".",".",5,".",".",".",5,".",".",".",5],[0,2,4,"_","_",7,6,2,"_","_",0,2,4,"_","_",7,6,".",6,".",".",".",6,".",".",".",6,".",".",".",6,".","."],[".",".",".","_","_",".",".",".","_","_",".",".",".","_","_",".",".",".",".",".",".",".",".",".",".",".",".",".",".",".",".",".","."],[".",".",".","_","_",".",".",".","_","_",".",".",".","_","_",".",".",".",".",".",".",".",".",".",".",".",".",".",".",".",".",".","."],[0,2,3,"_","_",7,5,2,"_","_",0,2,3,"_","_",7,5,5,".",5,".",5,".",5,".",5,".",5,".",5,".",5,"."]]],"numberofstrings":6,"notes":["E","B","G","D","A","E","B"],"capo":0,"stringnotes":["E4","B3","G3","D3","A2","E2"],"comments":["Verse:","Pre Chorus","Chorus","End of chorus","Bridge"],"timing":[["W","W","W","W","W","W","W","W","W","W","W","W","W","W","W","W","W","W","W","W","W","W","W","W","W","W","W","W","W","W","W","W"],["W","W","W","W","W","W","W","W","W","W","W","W","W","W","W","W","W","W","W","W","W","W","W","W"],["W","W","W","W","W","W","W","W","W","W","W","W","W","W","W","W"],["W","W","W","W","W","W","W","W","W","W","W","W","W","W","W","W"],["W","W","W",null,null,"W","W","W",null,null,"W","W","W",null,null,"W","W","W","W","W","W","W","W","W","W","W","W","W","W","W","W","W","W"]],"timingvisible":false,"tabcounter":33,"stave":4,"totalstaves":5,"instrument":"6guitar","selectedtuning":"6_standard","version":"13"}

Member for

4 days 20 hours
Submitted by smlemusic on Fri, 2020-10-16 14:36