Side eyed Bridge octaves

Chords

01234567891011121314151617181920212223
E
B
G
D
A
E
B
0 1 2 3 4 5 6 7 8 9 10 11 12 13 14 15 16 17 18 19 20 21 22 23
(/) Slide Up  (\) Slide Down  (h) Hammer On  (p) Pull Off  (b) Bend (r) Release (v) Vibrato

Stave 1:

D|------------------------------------------------------------------
A|------------------------------------------------------------------
F|--11--11--11--11--11--11--11--11--13--13--13--14--14--14--14--14--
C|------------------------------------------------------------------
A|--9---9---9---9---9---9---9---9---11--11--11--12--12--12--12--12--
C|------------------------------------------------------------------

Stave 2:

D|------------------------------------------------------------------
A|------------------------------------------------------------------
F|--10--10--10--10--10--10--10--10--13--13--13--11--11--11--10--10--
C|------------------------------------------------------------------
A|--8---8---8---8---8---8---8---8---11--11--11--9---9---9---8---8---
C|------------------------------------------------------------------

							http://www.guitartabcreator.com
Instruments
{"strings":[[[".",".",".",".",".",".",".",".",".",".",".",".",".",".",".","."],[".",".",".",".",".",".",".",".",".",".",".",".",".",".",".","."],[11,11,11,11,11,11,11,11,13,13,13,14,14,14,14,14],[".",".",".",".",".",".",".",".",".",".",".",".",".",".",".","."],[9,9,9,9,9,9,9,9,11,11,11,12,12,12,12,12],[".",".",".",".",".",".",".",".",".",".",".",".",".",".",".","."]],[[".",".",".",".",".",".",".",".",".",".",".",".",".",".",".","."],[".",".",".",".",".",".",".",".",".",".",".",".",".",".",".","."],[10,10,10,10,10,10,10,10,13,13,13,11,11,11,10,10],[".",".",".",".",".",".",".",".",".",".",".",".",".",".",".","."],[8,8,8,8,8,8,8,8,11,11,11,9,9,9,8,8],[".",".",".",".",".",".",".",".",".",".",".",".",".",".",".","."]]],"numberofstrings":6,"notes":["D","A","F","C","A","C"],"capo":0,"stringnotes":["D3","A2","F2","C2","G1","C1"],"comments":["Stave 1:","Stave 2:"],"timing":[["W","W","W","W","W","W","W","W","W","W","W","W","W","W","W","W"],["W","W","W","W","W","W","W","W","W","W","W","W","W","W","W","W"]],"timingvisible":false,"tabcounter":15,"stave":1,"totalstaves":2,"instrument":"6guitar","selectedtuning":"Drop C","version":"13"}

Member for

7 months 1 week
Submitted by smayo87 on Thu, 2020-09-17 11:59