Hiding bits of tuna in my fringe

Chords

01234567891011121314151617181920212223
E
B
G
D
A
E
B
0 1 2 3 4 5 6 7 8 9 10 11 12 13 14 15 16 17 18 19 20 21 22 23
(/) Slide Up  (\) Slide Down  (h) Hammer On  (p) Pull Off  (b) Bend (r) Release (v) Vibrato

Verse:

D|---------------------------------------------------------------------------------------------------
A|---------------------------------------------------------------------------------------------------
F|---------------------------------------------------------------------------------------------------
C|---------------------------------------------------------------------------------------8--7--5--7--
G|--------7-----5--------8-----7---------------------------7-----5--------8-----7--------------------
C|--0--0-----0-----0--0-----0-----0--0--10--8--7--8--0--0-----0-----0--0-----0-----0--0--------------

Verse

D|--------------------------------------------------------------------------------------------------------------------
A|--------------------------------------------------------------------------------------------------------------------
F|--------------------------------------------------------------------------------------------------------------------
C|---------------------------------------------------------------------------------------12--10--8------8-------------
G|--------7-----5--------8-----7---------------------------7-----5--------8-----7-------------------12-----12--10--8--
C|--0--0-----0-----0--0-----0-----0--0--10--8--7--8--0--0-----0-----0--0-----0-----0--0-------------------------------

Verse Harmony:

D|------------------------------------------------------------------------------------------------------------
A|------------------------------------------------------------------------------------------------------------
F|------------------------------------------------------------------------------------------------------------
C|---------------------------------------------------------------------------------------------12--10--8--10--
G|--------10-----8--------12-----10---------------------------10-----8--------12-----10-----------------------
C|--0--0------0-----0--0------0------0--0--10--8--7--8--0--0------0-----0--0------0------0--0-----------------

Verse Harmony:

D|--------------------------------------------------------------------------------------------------------------------------
A|--------------------------------------------------------------------------------------------------------------------------
F|--------------------------------------------------------------------------------------------------------------------------
C|---------------------------------------------------------------------------------------------12--10--8------8-------------
G|--------10-----8--------12-----10---------------------------10-----8--------12-----10-------------------12-----12--10--8--
C|--0--0------0-----0--0------0------0--0--10--8--7--8--0--0------0-----0--0------0------0--0-------------------------------

Bridge Part 1 (Harmony):

D|--------------------------------------------------------------------------------------------------------------------------------------
A|--------------------------------------------------------------------------------------------------------------------------------------
F|--------------------------------------------------------------------------------------------------------------------------------------
C|--------------------------------------------------------------------------------------------------------------7-----7-----7-----7-----
G|--------8-----8-----8-----8-----8--10--12--10--8--------10-----10-----10-----10-----10--12--13--12--10--------------------------------
C|--0--0-----0-----0-----0-----0--------------------0--0------0------0------0------0----------------------0--0-----0-----0-----0-----0--

Bridge Part 2(Harmony):

D|------------------------------------------
A|------------------------------------------
F|------------------------------------------
C|--7--8--10--8--7--7--5--------------------
G|------------------------8--7--8--7--4-----
C|------------------------------------------

Lead into Chorus:

D|-----------------------------------------------------------
A|-----------------------------------------------------------
F|-----------------------------------------------------------
C|--12--10--------------------------------------7-----7--10--
G|----------13--12--10--12--10--8--10--8--7--8-----8---------
C|-----------------------------------------------------------

Chorus (Trem Picking):

D|----------------------------------------------------------------------
A|----------------------------------------------------------------------
F|----------------------------------------------------------------------
C|--------------------------12--------12--12--12--10--------10--10--10--
G|--5--7--8--10--13--9--12--8---8--8--8---8---8---7---7--7--8---8---8---
C|----------------------------------------------------------------------

Lead into Next Verse (Term Pick):

D|--------------
A|--------------
F|--------------
C|--------------
G|--------4--7--
C|--5--8--------

Mid 8 1:

D|----------------------------------------------------------------------------------------------------
A|----------------------------------------------------------------------------------------------------
F|---------------------------------------------------------------------------------------------8--11--
C|-----------------------------------------------7--------------------------------------7--10---------
G|-----------------------------------------5--8-----------------------------------6--9----------------
C|--0--8--5--0--8--5--0--7--0--4--0--4--7-----------0--8--5--0--8--5--0--0--5--8----------------------

Mid 8 1:

D|-----------------------------------------------------------------------------------------------
A|-----------------------------------------------------------------------------------------------
F|-----------------------------------------------------------------------------------------------
C|-----------------------------------------------7-----------------------------------------------
G|-----------------------------------------5--8--------------------------1-----------------------
C|--0--8--5--0--8--5--0--7--0--4--0--4--7-----------0--8--5--0--8--5--0--1--1--1--1--1--1--1--1--

Mid 8 2:

D|-----------------------------------------------------------------------------------
A|-----------------------------------------------------------------------------------
F|--------------5--------------------------------------5-----------------------------
C|--------------5-----------------6--5-----------------5-----------------------------
G|--------------------5--8--7--5--------6-----------------------------6--5-----------
C|--0--0--0--0-----0-----------------------0--0--0--0-----0--5--6--8--------6--5--1--

Mid 8 2:

D|-----------------------------------------------------------------------------------
A|-----------------------------------------------------------------------------------
F|--------------5----------------------------------------------------------------10--
C|--------------5-----------------6--5--------------5--7---------------7--8--10--10--
G|--------------------5--8--7--5--------6-----------5--7--0--7--8--10----------------
C|--0--0--0--0-----0-----------------------0--0--0--5--7--0--------------------------

Mid 8 2 Harmony:

D|---------------------------------------------------------------------------------------
A|---------------------------------------------------------------------------------------
F|--------------5------------------------------------------5-----------------------------
C|--------------5-------------------10--8------------------5-----------------------------
G|--------------------8--12--10--8---------10-----------------------------6--5-----------
C|--0--0--0--0-----0---------------------------0--0--0--0-----0--5--6--8--------6--5--1--

Mid 8 2 Harmony:

D|-------------------------------------------------------------------------------------------
A|-------------------------------------------------------------------------------------------
F|--------------5------------------------------------------------------------------------10--
C|--------------5-------------------10--8---------------5--7-----------------10--12--13--10--
G|--------------------8--12--10--8---------10-----------5--7--0--10--12--13------------------
C|--0--0--0--0-----0---------------------------0--0--0--5--7--0------------------------------

							http://www.guitartabcreator.com
genre
Instruments
{"strings":[[[".",".",".",".",".",".",".",".",".",".",".",".",".",".",".",".",".",".",".",".",".",".",".",".",".",".",".",".",".",".",".","."],[".",".",".",".",".",".",".",".",".",".",".",".",".",".",".",".",".",".",".",".",".",".",".",".",".",".",".",".",".",".",".","."],[".",".",".",".",".",".",".",".",".",".",".",".",".",".",".",".",".",".",".",".",".",".",".",".",".",".",".",".",".",".",".","."],[".",".",".",".",".",".",".",".",".",".",".",".",".",".",".",".",".",".",".",".",".",".",".",".",".",".",".",".",8,7,5,7],[".",".",7,".",5,".",".",8,".",7,".",".",".",".",".",".",".",".",7,".",5,".",".",8,".",7,".",".",".",".",".","."],[0,0,".",0,".",0,0,".",0,".",0,0,10,8,7,8,0,0,".",0,".",0,0,".",0,".",0,0,".",".",".","."]],[[".",".",".",".",".",".",".",".",".",".",".",".",".",".",".",".",".",".",".",".",".",".",".",".",".",".",".",".",".",".",".",".",".",".",".","."],[".",".",".",".",".",".",".",".",".",".",".",".",".",".",".",".",".",".",".",".",".",".",".",".",".",".",".",".",".",".",".",".",".",".",".","."],[".",".",".",".",".",".",".",".",".",".",".",".",".",".",".",".",".",".",".",".",".",".",".",".",".",".",".",".",".",".",".",".",".",".",".","."],[".",".",".",".",".",".",".",".",".",".",".",".",".",".",".",".",".",".",".",".",".",".",".",".",".",".",".",".",12,10,8,".",8,".",".","."],[".",".",7,".",5,".",".",8,".",7,".",".",".",".",".",".",".",".",7,".",5,".",".",8,".",7,".",".",".",".",".",12,".",12,10,8],[0,0,".",0,".",0,0,".",0,".",0,0,10,8,7,8,0,0,".",0,".",0,0,".",0,".",0,0,".",".",".",".",".",".",".","."]],[[".",".",".",".",".",".",".",".",".",".",".",".",".",".",".",".",".",".",".",".",".",".",".",".",".",".",".",".",".",".",".","."],[".",".",".",".",".",".",".",".",".",".",".",".",".",".",".",".",".",".",".",".",".",".",".",".",".",".",".",".",".",".",".","."],[".",".",".",".",".",".",".",".",".",".",".",".",".",".",".",".",".",".",".",".",".",".",".",".",".",".",".",".",".",".",".","."],[".",".",".",".",".",".",".",".",".",".",".",".",".",".",".",".",".",".",".",".",".",".",".",".",".",".",".",".",12,10,8,10],[".",".",10,".",8,".",".",12,".",10,".",".",".",".",".",".",".",".",10,".",8,".",".",12,".",10,".",".",".",".",".","."],[0,0,".",0,".",0,0,".",0,".",0,0,10,8,7,8,0,0,".",0,".",0,0,".",0,".",0,0,".",".",".","."]],[[".",".",".",".",".",".",".",".",".",".",".",".",".",".",".",".",".",".",".",".",".",".",".",".",".",".",".",".",".",".",".",".",".",".",".","."],[".",".",".",".",".",".",".",".",".",".",".",".",".",".",".",".",".",".",".",".",".",".",".",".",".",".",".",".",".",".",".",".",".",".",".","."],[".",".",".",".",".",".",".",".",".",".",".",".",".",".",".",".",".",".",".",".",".",".",".",".",".",".",".",".",".",".",".",".",".",".",".","."],[".",".",".",".",".",".",".",".",".",".",".",".",".",".",".",".",".",".",".",".",".",".",".",".",".",".",".",".",12,10,8,".",8,".",".","."],[".",".",10,".",8,".",".",12,".",10,".",".",".",".",".",".",".",".",10,".",8,".",".",12,".",10,".",".",".",".",".",12,".",12,10,8],[0,0,".",0,".",0,0,".",0,".",0,0,10,8,7,8,0,0,".",0,".",0,0,".",0,".",0,0,".",".",".",".",".",".",".","."]],[[".",".",".",".",".",".",".",".",".",".",".",".",".",".",".",".",".",".",".",".",".",".",".",".",".",".",".",".",".",".",".",".",".",".",".",".",".",".",".","."],[".",".",".",".",".",".",".",".",".",".",".",".",".",".",".",".",".",".",".",".",".",".",".",".",".",".",".",".",".",".",".",".",".",".",".",".",".",".",".","."],[".",".",".",".",".",".",".",".",".",".",".",".",".",".",".",".",".",".",".",".",".",".",".",".",".",".",".",".",".",".",".",".",".",".",".",".",".",".",".","."],[".",".",".",".",".",".",".",".",".",".",".",".",".",".",".",".",".",".",".",".",".",".",".",".",".",".",".",".",".",".",".",".",7,".",7,".",7,".",7,"."],[".",".",8,".",8,".",8,".",8,".",8,10,12,10,8,".",".",10,".",10,".",10,".",10,".",10,12,13,12,10,".",".",".",".",".",".",".",".",".","."],[0,0,".",0,".",0,".",0,".",0,".",".",".",".",".",0,0,".",0,".",0,".",0,".",0,".",".",".",".",".",0,0,".",0,".",0,".",0,".",0]],[[".",".",".",".",".",".",".",".",".",".",".",".","."],[".",".",".",".",".",".",".",".",".",".",".",".","."],[".",".",".",".",".",".",".",".",".",".",".",".","."],[7,8,10,8,7,7,5,".",".",".",".",".","."],[".",".",".",".",".",".",".",8,7,8,7,4,"."],[".",".",".",".",".",".",".",".",".",".",".",".","."]],[[".",".",".",".",".",".",".",".",".",".",".",".",".",".",".","."],[".",".",".",".",".",".",".",".",".",".",".",".",".",".",".","."],[".",".",".",".",".",".",".",".",".",".",".",".",".",".",".","."],[12,10,".",".",".",".",".",".",".",".",".",".",7,".",7,10],[".",".",13,12,10,12,10,8,10,8,7,8,".",8,".","."],[".",".",".",".",".",".",".",".",".",".",".",".",".",".",".","."]],[[".",".",".",".",".",".",".",".",".",".",".",".",".",".",".",".",".",".","."],[".",".",".",".",".",".",".",".",".",".",".",".",".",".",".",".",".",".","."],[".",".",".",".",".",".",".",".",".",".",".",".",".",".",".",".",".",".","."],[".",".",".",".",".",".",".",12,".",".",12,12,12,10,".",".",10,10,10],[5,7,8,10,13,9,12,8,8,8,8,8,8,7,7,7,8,8,8],[".",".",".",".",".",".",".",".",".",".",".",".",".",".",".",".",".",".","."]],[[".",".",".","."],[".",".",".","."],[".",".",".","."],[".",".",".","."],[".",".",4,7],[5,8,".","."]],[[".",".",".",".",".",".",".",".",".",".",".",".",".",".",".",".",".",".",".",".",".",".",".",".",".",".",".",".",".",".",".","."],[".",".",".",".",".",".",".",".",".",".",".",".",".",".",".",".",".",".",".",".",".",".",".",".",".",".",".",".",".",".",".","."],[".",".",".",".",".",".",".",".",".",".",".",".",".",".",".",".",".",".",".",".",".",".",".",".",".",".",".",".",".",".",8,11],[".",".",".",".",".",".",".",".",".",".",".",".",".",".",".",7,".",".",".",".",".",".",".",".",".",".",".",".",7,10,".","."],[".",".",".",".",".",".",".",".",".",".",".",".",".",5,8,".",".",".",".",".",".",".",".",".",".",".",6,9,".",".",".","."],[0,8,5,0,8,5,0,7,0,4,0,4,7,".",".",".",0,8,5,0,8,5,0,0,5,8,".",".",".",".",".","."]],[[".",".",".",".",".",".",".",".",".",".",".",".",".",".",".",".",".",".",".",".",".",".",".",".",".",".",".",".",".",".","."],[".",".",".",".",".",".",".",".",".",".",".",".",".",".",".",".",".",".",".",".",".",".",".",".",".",".",".",".",".",".","."],[".",".",".",".",".",".",".",".",".",".",".",".",".",".",".",".",".",".",".",".",".",".",".",".",".",".",".",".",".",".","."],[".",".",".",".",".",".",".",".",".",".",".",".",".",".",".",7,".",".",".",".",".",".",".",".",".",".",".",".",".",".","."],[".",".",".",".",".",".",".",".",".",".",".",".",".",5,8,".",".",".",".",".",".",".",".",1,".",".",".",".",".",".","."],[0,8,5,0,8,5,0,7,0,4,0,4,7,".",".",".",0,8,5,0,8,5,0,1,1,1,1,1,1,1,1]],[[".",".",".",".",".",".",".",".",".",".",".",".",".",".",".",".",".",".",".",".",".",".",".",".",".",".","."],[".",".",".",".",".",".",".",".",".",".",".",".",".",".",".",".",".",".",".",".",".",".",".",".",".",".","."],[".",".",".",".",5,".",".",".",".",".",".",".",".",".",".",".",".",5,".",".",".",".",".",".",".",".","."],[".",".",".",".",5,".",".",".",".",".",6,5,".",".",".",".",".",5,".",".",".",".",".",".",".",".","."],[".",".",".",".",".",".",5,8,7,5,".",".",6,".",".",".",".",".",".",".",".",".",6,5,".",".","."],[0,0,0,0,".",0,".",".",".",".",".",".",".",0,0,0,0,".",0,5,6,8,".",".",6,5,1]],[[".",".",".",".",".",".",".",".",".",".",".",".",".",".",".",".",".",".",".",".",".",".",".",".",".","."],[".",".",".",".",".",".",".",".",".",".",".",".",".",".",".",".",".",".",".",".",".",".",".",".",".","."],[".",".",".",".",5,".",".",".",".",".",".",".",".",".",".",".",".",".",".",".",".",".",".",".",".",10],[".",".",".",".",5,".",".",".",".",".",6,5,".",".",".",".",5,7,".",".",".",".",7,8,10,10],[".",".",".",".",".",".",5,8,7,5,".",".",6,".",".",".",5,7,0,7,8,10,".",".",".","."],[0,0,0,0,".",0,".",".",".",".",".",".",".",0,0,0,5,7,0,".",".",".",".",".",".","."]],[[".",".",".",".",".",".",".",".",".",".",".",".",".",".",".",".",".",".",".",".",".",".",".",".",".",".","."],[".",".",".",".",".",".",".",".",".",".",".",".",".",".",".",".",".",".",".",".",".",".",".",".",".",".","."],[".",".",".",".",5,".",".",".",".",".",".",".",".",".",".",".",".",5,".",".",".",".",".",".",".",".","."],[".",".",".",".",5,".",".",".",".",".",10,8,".",".",".",".",".",5,".",".",".",".",".",".",".",".","."],[".",".",".",".",".",".",8,12,10,8,".",".",10,".",".",".",".",".",".",".",".",".",6,5,".",".","."],[0,0,0,0,".",0,".",".",".",".",".",".",".",0,0,0,0,".",0,5,6,8,".",".",6,5,1]],[[".",".",".",".",".",".",".",".",".",".",".",".",".",".",".",".",".",".",".",".",".",".",".",".",".","."],[".",".",".",".",".",".",".",".",".",".",".",".",".",".",".",".",".",".",".",".",".",".",".",".",".","."],[".",".",".",".",5,".",".",".",".",".",".",".",".",".",".",".",".",".",".",".",".",".",".",".",".",10],[".",".",".",".",5,".",".",".",".",".",10,8,".",".",".",".",5,7,".",".",".",".",10,12,13,10],[".",".",".",".",".",".",8,12,10,8,".",".",10,".",".",".",5,7,0,10,12,13,".",".",".","."],[0,0,0,0,".",0,".",".",".",".",".",".",".",0,0,0,5,7,0,".",".",".",".",".",".","."]]],"numberofstrings":6,"notes":["D","A","F","C","G","C"],"capo":0,"stringnotes":["D3","A2","F2","C2","G1","C1"],"comments":["Verse:","Verse","Verse Harmony:","Verse Harmony:","Bridge Part 1 (Harmony):","Bridge Part 2(Harmony):","Lead into Chorus:","Chorus (Trem Picking):","Lead into Next Verse (Term Pick):","Mid 8 1:","Mid 8 1:","Mid 8 2:","Mid 8 2:","Mid 8 2 Harmony:","Mid 8 2 Harmony:"],"timing":[[null,null,null,null,null,null,null,null,null,null,null,null,null,null,null,null,null,null,null,null,null,null,null,null,null,null,null,null,null,null,null,null],[null,null,null,null,null,null,null,null,null,null,null,null,null,null,null,null,null,null,null,null,null,null,null,null,null,null,null,null,null,null,null,null,null,null,null,null],[null,null,null,null,null,null,null,null,null,null,null,null,null,null,null,null,null,null,null,null,null,null,null,null,null,null,null,null,null,null,null,null],[null,null,null,null,null,null,null,null,null,null,null,null,null,null,null,null,null,null,null,null,null,null,null,null,null,null,null,null,null,null,null,null,null,null,null,null],[null,null,null,null,null,null,null,null,null,null,null,null,null,null,null,null,null,null,null,null,null,null,null,null,null,null,null,null,null,null,null,null,null,null,null,null,null,null,null,null,null,null,null,null,null],[null,null,null,null,null,null,null,null,null,null,null,null],[null,null,null,null,null,null,null,null,null,null,null,null,null,null,null,null],[null,null,null,null,null,null,null,null,null,null,null,null,null,null,null,null,null,null,null],[null,null,null,null],[null,null,null,null,null,null,null,null,null,null,null,null,null,null,null,null,null,null,null,null,null,null,null,null,null,null,null,null,null,null,null,null],[null,null,null,null,null,null,null,null,null,null,null,null,null,null,null,null,null,null,null,null,null,null,null,null,null,null,null,null,null,null,null],[null,null,null,null,null,null,null,null,null,null,null,null,null,null,null,null,null,null,null,null,null,null,null,null,null,null],[null,null,null,null,null,null,null,null,null,null,null,null,null,null,null,null,null,null,null,null,null,null,null,null,null,null,null,null,null,null],[null,null,null,null,null,null,null,null,null,null,null,null,null,null,null,null,null,null,null,null,null,null,null,null,null,null,null,null],[null,null,null,null,null,null,null,null,null,null,null,null,null,null,null,null,null,null,null,null,null,null,null,null,null,null]],"timingvisible":false,"tabcounter":25,"stave":14,"totalstaves":15,"instrument":"6guitar","selectedtuning":"Drop C","version":"13"}

Member for

7 months 1 week
Submitted by smayo87 on Fri, 2020-10-30 04:50