GIC Verse

Chords

01234567891011121314151617181920212223
E
B
G
D
A
E
B
0 1 2 3 4 5 6 7 8 9 10 11 12 13 14 15 16 17 18 19 20 21 22 23
(/) Slide Up  (\) Slide Down  (h) Hammer On  (p) Pull Off  (b) Bend (r) Release (v) Vibrato

Stave 1:

D|---------------------------------------------------------------------------
A|---------------------------------------------------------------------------
F|---------------------------------------------------------------------------
C|--------------6--9--------6--5--5------------7--8--10----------------------
A|--0--0--5--8--------------6--5--5--7--8--10------------7--8--10------------
C|--0--0--------------0--0--6--5--5--------------------------------7--8--10--

Stave 2:

D|-----------------------------------------------------------------------
A|-----------------------------------------------------------------------
F|-----------------------------------------------------------------------
C|--------------6--9--------5--------------------------0--5--8-----------
A|--0--0--5--8--------------5--2--2-----------0--4--7-----------0--5--8--
C|--0--0--------------0--0--5--2--2--0--3--5-----------------------------

Stave 3:

D|----------------------------------------------------------------------------------------
A|----------------------------------------------------------------------------------------
F|----------------------------------------------------------------------------------------
C|---------------9--12--------12--10--10--------------10--12--13--------------------------
A|--0--0--8--11---------------------------10--12--13--------------10--12--13--------------
C|--0--0----------------0--0--------------------------------------------------10--12--13--

Stave 4:

D|-------------------------------------------------------------------------
A|-------------------------------------------------------------------------
F|-------------------------------------------------------------------------
C|---------------9--12--------5--------------------------0--5--8-----------
A|--------8--11---------------5--2--2-----------0--4--7-----------0--5--8--
C|--0--0----------------0--0--5--2--2--0--3--5-----------------------------

							http://www.guitartabcreator.com
genre
Instruments
{"strings":[[[".",".",".",".",".",".",".",".",".",".",".",".",".",".",".",".",".",".",".",".",".",".","."],[".",".",".",".",".",".",".",".",".",".",".",".",".",".",".",".",".",".",".",".",".",".","."],[".",".",".",".",".",".",".",".",".",".",".",".",".",".",".",".",".",".",".",".",".",".","."],[".",".",".",".",6,9,".",".",6,5,5,".",".",".",7,8,10,".",".",".",".",".","."],[0,0,5,8,".",".",".",".",6,5,5,7,8,10,".",".",".",7,8,10,".",".","."],[0,0,".",".",".",".",0,0,6,5,5,".",".",".",".",".",".",".",".",".",7,8,10]],[[".",".",".",".",".",".",".",".",".",".",".",".",".",".",".",".",".",".",".",".",".",".","."],[".",".",".",".",".",".",".",".",".",".",".",".",".",".",".",".",".",".",".",".",".",".","."],[".",".",".",".",".",".",".",".",".",".",".",".",".",".",".",".",".",".",".",".",".",".","."],[".",".",".",".",6,9,".",".",5,".",".",".",".",".",".",".",".",0,5,8,".",".","."],[0,0,5,8,".",".",".",".",5,2,2,".",".",".",0,4,7,".",".",".",0,5,8],[0,0,".",".",".",".",0,0,5,2,2,0,3,5,".",".",".",".",".",".",".",".","."]],[[".",".",".",".",".",".",".",".",".",".",".",".",".",".",".",".",".",".",".",".",".",".","."],[".",".",".",".",".",".",".",".",".",".",".",".",".",".",".",".",".",".",".",".",".",".","."],[".",".",".",".",".",".",".",".",".",".",".",".",".",".",".",".",".",".",".",".",".",".","."],[".",".",".",".",9,12,".",".",12,10,10,".",".",".",10,12,13,".",".",".",".",".","."],[0,0,8,11,".",".",".",".",".",".",".",10,12,13,".",".",".",10,12,13,".",".","."],[0,0,".",".",".",".",0,0,".",".",".",".",".",".",".",".",".",".",".",".",10,12,13]],[[".",".",".",".",".",".",".",".",".",".",".",".",".",".",".",".",".",".",".",".",".",".","."],[".",".",".",".",".",".",".",".",".",".",".",".",".",".",".",".",".",".",".",".",".",".","."],[".",".",".",".",".",".",".",".",".",".",".",".",".",".",".",".",".",".",".",".",".",".","."],[".",".",".",".",9,12,".",".",5,".",".",".",".",".",".",".",".",0,5,8,".",".","."],[".",".",8,11,".",".",".",".",5,2,2,".",".",".",0,4,7,".",".",".",0,5,8],[0,0,".",".",".",".",0,0,5,2,2,0,3,5,".",".",".",".",".",".",".",".","."]]],"numberofstrings":6,"notes":["D","A","F","C","A","C"],"capo":0,"stringnotes":["D3","A2","F2","C2","G1","C1"],"comments":["Stave 1:","Stave 2:","Stave 3:","Stave 4:"],"timing":[["W","W","W","W","W","W","W","W","W","W","W","W","W","W","W","W","W","W","W","W","W","W","W"],["W","W","W","W","W","W","W","W","W","W","W","W","W","W","W","W","W","W","W","W","W","W","W"],["W","W","W","W","W","W","W","W","W","W","W","W","W","W","W","W","W","W","W","W","W","W","W"],["W","W","W","W","W","W","W","W","W","W","W","W","W","W","W","W","W","W","W","W","W","W","W"]],"timingvisible":false,"tabcounter":23,"stave":3,"totalstaves":4,"instrument":"6guitar","selectedtuning":"Drop C","version":"13"}

Member for

7 months 1 week
Submitted by smayo87 on Tue, 2020-06-09 08:28