GIC Mid 8

Chords

01234567891011121314151617181920212223
E
B
G
D
A
E
B
0 1 2 3 4 5 6 7 8 9 10 11 12 13 14 15 16 17 18 19 20 21 22 23
(/) Slide Up  (\) Slide Down  (h) Hammer On  (p) Pull Off  (b) Bend (r) Release (v) Vibrato

Stave 1:

D|---------------------------------------------------------------------------
A|---------------------------------------------------------------------------
F|------------------------------------------------------8--10--8-------------
C|--0-----------------------------------------------10------------10--8------
A|--0-----------1-----------3-----------4--------8-----------------------10--
C|--0--0--0--0--1--0--0--0--3--0--0--0--4--0--0------------------------------

Stave 2:

D|-----------------------------------------------------------------------
A|-----------------------------------------------------------------------
F|-----------------------------------------------------------------------
C|--0--------------------------------------------------------------5--8--
A|--0-----------1-----------4-----------3-----------------0--4--7--------
C|--0--0--0--0--1--0--0--0--4--0--0--0--3--0--0--0--3--5-----------------

							http://www.guitartabcreator.com
genre
Instruments
{"strings":[[[".",".",".",".",".",".",".",".",".",".",".",".",".",".",".",".",".",".",".",".",".",".","."],[".",".",".",".",".",".",".",".",".",".",".",".",".",".",".",".",".",".",".",".",".",".","."],[".",".",".",".",".",".",".",".",".",".",".",".",".",".",".",".",".",8,10,8,".",".","."],[0,".",".",".",".",".",".",".",".",".",".",".",".",".",".",".",10,".",".",".",10,8,"."],[0,".",".",".",1,".",".",".",3,".",".",".",4,".",".",8,".",".",".",".",".",".",10],[0,0,0,0,1,0,0,0,3,0,0,0,4,0,0,".",".",".",".",".",".",".","."]],[[".",".",".",".",".",".",".",".",".",".",".",".",".",".",".",".",".",".",".",".",".",".","."],[".",".",".",".",".",".",".",".",".",".",".",".",".",".",".",".",".",".",".",".",".",".","."],[".",".",".",".",".",".",".",".",".",".",".",".",".",".",".",".",".",".",".",".",".",".","."],[0,".",".",".",".",".",".",".",".",".",".",".",".",".",".",".",".",".",".",".",".",5,8],[0,".",".",".",1,".",".",".",4,".",".",".",3,".",".",".",".",".",0,4,7,".","."],[0,0,0,0,1,0,0,0,4,0,0,0,3,0,0,0,3,5,".",".",".",".","."]]],"numberofstrings":6,"notes":["D","A","F","C","A","C"],"capo":0,"stringnotes":["D3","A2","F2","C2","G1","C1"],"comments":["Stave 1:","Stave 2:"],"timing":[["W","W","W","W","W","W","W","W","W","W","W","W","W","W","W","W","W","W","W","W","W","W","W"],["W","W","W","W","W","W","W","W","W","W","W","W","W","W","W","W","W","W","W","W","W","W","W"]],"timingvisible":false,"tabcounter":23,"stave":1,"totalstaves":2,"instrument":"6guitar","selectedtuning":"Drop C","version":"13"}

Member for

7 months 1 week
Submitted by smayo87 on Tue, 2020-06-09 08:51