GIC Intro

Chords

01234567891011121314151617181920212223
E
B
G
D
A
E
B
0 1 2 3 4 5 6 7 8 9 10 11 12 13 14 15 16 17 18 19 20 21 22 23
(/) Slide Up  (\) Slide Down  (h) Hammer On  (p) Pull Off  (b) Bend (r) Release (v) Vibrato

Stave 1:

D|----------------------------------------------------------------------------------------------------------------------------------
A|----------------------------------------------------------------------------------------------------------------------------------
F|----------------------------------------------------------------------------------------------------------------------------------
C|-----------------------6--9--7--10-----------------------6--5-----------------------6--9--7--10-----------------------6--5--------
A|--------5--8------------------------------5--8-----------6--5--------5--8------------------------------5--6-----------------6--5--
C|--0--0--------0--0--0---------------0--0--------0--0--0--6--5--0--0--------0--0--0---------------0--0--------0--0--0--------------

Stave 2:

D|-----------------------------------------------------------------------------------------------------------------------------------------
A|-----------------------------------------------------------------------------------------------------------------------------------------
F|-----------------------------------------------------------------------------------------------------------------------------------------
C|------------------------9--12--10--13------------------------6--5------------------------9--12--10--13-----------------------9--8--------
A|--------8--11--------------------------------8--11-----------6--5--------8--11--------------------------------8--9-----------------9--8--
C|--0--0---------0--0--0-----------------0--0---------0--0--0--6--5--0--0---------0--0--0-----------------0--0--------0--0--0--------------

							http://www.guitartabcreator.com
genre
Instruments
{"strings":[[[".",".",".",".",".",".",".",".",".",".",".",".",".",".",".",".",".",".",".",".",".",".",".",".",".",".",".",".",".",".",".",".",".",".",".",".",".",".",".",".",".","."],[".",".",".",".",".",".",".",".",".",".",".",".",".",".",".",".",".",".",".",".",".",".",".",".",".",".",".",".",".",".",".",".",".",".",".",".",".",".",".",".",".","."],[".",".",".",".",".",".",".",".",".",".",".",".",".",".",".",".",".",".",".",".",".",".",".",".",".",".",".",".",".",".",".",".",".",".",".",".",".",".",".",".",".","."],[".",".",".",".",".",".",".",6,9,7,10,".",".",".",".",".",".",".",6,5,".",".",".",".",".",".",".",6,9,7,10,".",".",".",".",".",".",".",6,5,".","."],[".",".",5,8,".",".",".",".",".",".",".",".",".",5,8,".",".",".",6,5,".",".",5,8,".",".",".",".",".",".",".",".",".",5,6,".",".",".",".",".",6,5],[0,0,".",".",0,0,0,".",".",".",".",0,0,".",".",0,0,0,6,5,0,0,".",".",0,0,0,".",".",".",".",0,0,".",".",0,0,0,".",".",".","."]],[[".",".",".",".",".",".",".",".",".",".",".",".",".",".",".",".",".",".",".",".",".",".",".",".",".",".",".",".",".",".",".",".",".",".",".",".",".",".",".",".",".","."],[".",".",".",".",".",".",".",".",".",".",".",".",".",".",".",".",".",".",".",".",".",".",".",".",".",".",".",".",".",".",".",".",".",".",".",".",".",".",".",".",".","."],[".",".",".",".",".",".",".",".",".",".",".",".",".",".",".",".",".",".",".",".",".",".",".",".",".",".",".",".",".",".",".",".",".",".",".",".",".",".",".",".",".","."],[".",".",".",".",".",".",".",9,12,10,13,".",".",".",".",".",".",".",6,5,".",".",".",".",".",".",".",9,12,10,13,".",".",".",".",".",".",".",9,8,".","."],[".",".",8,11,".",".",".",".",".",".",".",".",".",8,11,".",".",".",6,5,".",".",8,11,".",".",".",".",".",".",".",".",".",8,9,".",".",".",".",".",9,8],[0,0,".",".",0,0,0,".",".",".",".",0,0,".",".",0,0,0,6,5,0,0,".",".",0,0,0,".",".",".",".",0,0,".",".",0,0,0,".",".",".","."]]],"numberofstrings":6,"notes":["D","A","F","C","A","C"],"capo":0,"stringnotes":["D3","A2","F2","C2","G1","C1"],"comments":["Stave 1:","Stave 2:"],"timing":[["W","W","W","W","W","W","W","W","W","W","W","W","W","W","W","W","W","W","W","W","W","W","W","W","W","W","W","W","W","W","W","W","W","W","W","W","W","W","W","W","W","W"],["W","W","W","W","W","W","W","W","W","W","W","W","W","W","W","W","W","W","W","W","W","W","W","W","W","W","W","W","W","W","W","W","W","W","W","W","W","W","W","W","W","W"]],"timingvisible":false,"tabcounter":42,"stave":1,"totalstaves":2,"instrument":"6guitar","selectedtuning":"Drop C","version":"13"}

Member for

7 months 1 week
Submitted by smayo87 on Tue, 2020-06-09 08:12