GIC Bridge

Chords

01234567891011121314151617181920212223
E
B
G
D
A
E
B
0 1 2 3 4 5 6 7 8 9 10 11 12 13 14 15 16 17 18 19 20 21 22 23
(/) Slide Up  (\) Slide Down  (h) Hammer On  (p) Pull Off  (b) Bend (r) Release (v) Vibrato

Stave 1:

D|--------------------------------------------------
A|--------------------------------------------------
F|--------------------------------------------------
C|--0-----------------------------------------------
A|--0-----------------------------------------------
C|--0--0--0--0--0--0--1--0--0--0--0--3--0--0--0--0--

Stave 2:

D|--------------------------
A|--------------------------
F|--------------------------
C|--------------------5--8--
A|-----------0--4--7--------
C|--0--3--5-----------------

Stave 3:

D|------------------------------------------------------------
A|------------------------------------------------------------
F|-----------------------------------10--9--9--7--------------
C|--0---------------------------------------------8--7--7--3--
A|--0--------------------------------8---7--7--5--8--7--7--3--
C|--0--0--0--0--0--0--1--0--0--0--0---------------8--7--7--3--

Stave 4:

D|--------------------------------------------------
A|--------------------------------------------------
F|--------------------------------------------------
C|--0-----------------------------------------------
A|--0-----------------------------------------------
C|--0--0--0--0--0--0--1--0--0--0--0--3--0--0--0--0--

Stave 5:

D|--------------------------
A|--------------------------
F|--------------------------
C|--------------------5--8--
A|-----------0--4--7--------
C|--0--3--5-----------------

Stave 6:

D|-----------------------------------------------
A|-----------------------------------------------
F|-----------------------------------------3--5--
C|--0--------------------------0-----------1--3--
A|--0-----------------3--0-----0-----------1--3--
C|--0--0--0--0--0--0--3--0--0--0--0--0--0--------

							http://www.guitartabcreator.com
genre
Instruments
{"strings":[[[".",".",".",".",".",".",".",".",".",".",".",".",".",".",".","."],[".",".",".",".",".",".",".",".",".",".",".",".",".",".",".","."],[".",".",".",".",".",".",".",".",".",".",".",".",".",".",".","."],[0,".",".",".",".",".",".",".",".",".",".",".",".",".",".","."],[0,".",".",".",".",".",".",".",".",".",".",".",".",".",".","."],[0,0,0,0,0,0,1,0,0,0,0,3,0,0,0,0]],[[".",".",".",".",".",".",".","."],[".",".",".",".",".",".",".","."],[".",".",".",".",".",".",".","."],[".",".",".",".",".",".",5,8],[".",".",".",0,4,7,".","."],[0,3,5,".",".",".",".","."]],[[".",".",".",".",".",".",".",".",".",".",".",".",".",".",".",".",".",".","."],[".",".",".",".",".",".",".",".",".",".",".",".",".",".",".",".",".",".","."],[".",".",".",".",".",".",".",".",".",".",".",10,9,9,7,".",".",".","."],[0,".",".",".",".",".",".",".",".",".",".",".",".",".",".",8,7,7,3],[0,".",".",".",".",".",".",".",".",".",".",8,7,7,5,8,7,7,3],[0,0,0,0,0,0,1,0,0,0,0,".",".",".",".",8,7,7,3]],[[".",".",".",".",".",".",".",".",".",".",".",".",".",".",".","."],[".",".",".",".",".",".",".",".",".",".",".",".",".",".",".","."],[".",".",".",".",".",".",".",".",".",".",".",".",".",".",".","."],[0,".",".",".",".",".",".",".",".",".",".",".",".",".",".","."],[0,".",".",".",".",".",".",".",".",".",".",".",".",".",".","."],[0,0,0,0,0,0,1,0,0,0,0,3,0,0,0,0]],[[".",".",".",".",".",".",".","."],[".",".",".",".",".",".",".","."],[".",".",".",".",".",".",".","."],[".",".",".",".",".",".",5,8],[".",".",".",0,4,7,".","."],[0,3,5,".",".",".",".","."]],[[".",".",".",".",".",".",".",".",".",".",".",".",".",".","."],[".",".",".",".",".",".",".",".",".",".",".",".",".",".","."],[".",".",".",".",".",".",".",".",".",".",".",".",".",3,5],[0,".",".",".",".",".",".",".",".",0,".",".",".",1,3],[0,".",".",".",".",".",3,0,".",0,".",".",".",1,3],[0,0,0,0,0,0,3,0,0,0,0,0,0,".","."]]],"numberofstrings":6,"notes":["D","A","F","C","A","C"],"capo":0,"stringnotes":["D3","A2","F2","C2","G1","C1"],"comments":["Stave 1:","Stave 2:","Stave 3:","Stave 4:","Stave 5:","Stave 6:"],"timing":[["W","W","W","W","W","W","W","W","W","W","W","W","W","W","W","W"],["W","W","W","W","W","W","W","W"],["W","W","W","W","W","W","W","W","W","W","W","W","W","W","W","W","W","W","W"],["W","W","W","W","W","W","W","W","W","W","W","W","W","W","W","W"],["W","W","W","W","W","W","W","W"],["W","W","W","W","W","W","W","W","W","W","W","W","W","W","W"]],"timingvisible":false,"tabcounter":14,"stave":5,"totalstaves":6,"instrument":"6guitar","selectedtuning":"Drop C","version":"13"}

Member for

7 months 1 week
Submitted by smayo87 on Tue, 2020-06-09 08:44