GIC Breakdown

Chords

01234567891011121314151617181920212223
E
B
G
D
A
E
B
0 1 2 3 4 5 6 7 8 9 10 11 12 13 14 15 16 17 18 19 20 21 22 23
(/) Slide Up  (\) Slide Down  (h) Hammer On  (p) Pull Off  (b) Bend (r) Release (v) Vibrato

Stave 1:

D|---------------------------------------------------------------------------------------------------
A|---------------------------------------------------------------------------------------------------
F|---------------------------------------------------------------------------------------------------
C|-------------------------------------------------------------------------------------8--10---------
A|-----------------------------------0--3--6------------------------------------8--10---------8--10--
C|--0--0--0--0--0--0--0--0--0--1--3-----------3--0--0--0--0--0--0--0--0--8--10-----------------------

Stave 2:

D|--------------------------------------------------------------------------------
A|--------------------------------------------------------------------------------
F|--------------------------------------------------------------------------------
C|-----------------------------------------------------------------------6--6--6--
A|-----------------------------------0--3--6-----------------------------5--5--5--
C|--0--0--0--0--0--0--0--0--0--1--3-----------3--0--0--0--0--0--0--0--0-----------

Stave 3:

D|-------------------------------------------------------------------------------------------------------
A|-------------------------------------------------------------------------------------------------------
F|-------------------------------------------------------------------------------------------------------
C|---------------------------------------------------------------------------------------10--12----------
A|-----------------------------------0--3--6-------------------------------------10--12----------10--12--
C|--0--0--0--0--0--0--0--0--0--1--3-----------3--0--0--0--0--0--0--0--0--10--12--------------------------

Stave 4:

D|--------------------------------------------------------------------------------
A|--------------------------------------------------------------------------------
F|--------------------------------------------------------------------------------
C|-----------------------------------------------------------------------8--8--8--
A|-----------------------------------0--3--6-----------------------------7--7--7--
C|--0--0--0--0--0--0--0--0--0--1--3-----------3--0--0--0--0--0--0--0--0-----------

							http://www.guitartabcreator.com
genre
Instruments
{"strings":[[[".",".",".",".",".",".",".",".",".",".",".",".",".",".",".",".",".",".",".",".",".",".",".",".",".",".",".",".",".",".","."],[".",".",".",".",".",".",".",".",".",".",".",".",".",".",".",".",".",".",".",".",".",".",".",".",".",".",".",".",".",".","."],[".",".",".",".",".",".",".",".",".",".",".",".",".",".",".",".",".",".",".",".",".",".",".",".",".",".",".",".",".",".","."],[".",".",".",".",".",".",".",".",".",".",".",".",".",".",".",".",".",".",".",".",".",".",".",".",".",".",".",8,10,".","."],[".",".",".",".",".",".",".",".",".",".",".",0,3,6,".",".",".",".",".",".",".",".",".",".",".",8,10,".",".",8,10],[0,0,0,0,0,0,0,0,0,1,3,".",".",".",3,0,0,0,0,0,0,0,0,8,10,".",".",".",".",".","."]],[[".",".",".",".",".",".",".",".",".",".",".",".",".",".",".",".",".",".",".",".",".",".",".",".",".","."],[".",".",".",".",".",".",".",".",".",".",".",".",".",".",".",".",".",".",".",".",".",".",".",".",".","."],[".",".",".",".",".",".",".",".",".",".",".",".",".",".",".",".",".",".",".",".",".",".",".",".",".","."],[".",".",".",".",".",".",".",".",".",".",".",".",".",".",".",".",".",".",".",".",".",".",".",6,6,6],[".",".",".",".",".",".",".",".",".",".",".",0,3,6,".",".",".",".",".",".",".",".",".",5,5,5],[0,0,0,0,0,0,0,0,0,1,3,".",".",".",3,0,0,0,0,0,0,0,0,".",".","."]],[[".",".",".",".",".",".",".",".",".",".",".",".",".",".",".",".",".",".",".",".",".",".",".",".",".",".",".",".",".",".","."],[".",".",".",".",".",".",".",".",".",".",".",".",".",".",".",".",".",".",".",".",".",".",".",".",".",".",".",".",".",".","."],[".",".",".",".",".",".",".",".",".",".",".",".",".",".",".",".",".",".",".",".",".",".",".",".",".",".",".",".",".",".","."],[".",".",".",".",".",".",".",".",".",".",".",".",".",".",".",".",".",".",".",".",".",".",".",".",".",".",".",10,12,".","."],[".",".",".",".",".",".",".",".",".",".",".",0,3,6,".",".",".",".",".",".",".",".",".",".",".",10,12,".",".",10,12],[0,0,0,0,0,0,0,0,0,1,3,".",".",".",3,0,0,0,0,0,0,0,0,10,12,".",".",".",".",".","."]],[[".",".",".",".",".",".",".",".",".",".",".",".",".",".",".",".",".",".",".",".",".",".",".",".",".","."],[".",".",".",".",".",".",".",".",".",".",".",".",".",".",".",".",".",".",".",".",".",".",".",".",".","."],[".",".",".",".",".",".",".",".",".",".",".",".",".",".",".",".",".",".",".",".",".",".",".",".",".","."],[".",".",".",".",".",".",".",".",".",".",".",".",".",".",".",".",".",".",".",".",".",".",".",8,8,8],[".",".",".",".",".",".",".",".",".",".",".",0,3,6,".",".",".",".",".",".",".",".",".",7,7,7],[0,0,0,0,0,0,0,0,0,1,3,".",".",".",3,0,0,0,0,0,0,0,0,".",".","."]]],"numberofstrings":6,"notes":["D","A","F","C","A","C"],"capo":0,"stringnotes":["D3","A2","F2","C2","G1","C1"],"comments":["Stave 1:","Stave 2:","Stave 3:","Stave 4:"],"timing":[[null,null,null,null,null,null,null,null,null,null,null,null,null,null,null,null,null,null,null,null,null,null,null,null,null,null,null,null,null,null,null],[null,null,null,null,null,null,null,null,null,null,null,null,null,null,null,null,null,null,null,null,null,null,null,null,null,null],[null,null,null,null,null,null,null,null,null,null,null,null,null,null,null,null,null,null,null,null,null,null,null,null,null,null,null,null,null,null,null],[null,null,null,null,null,null,null,null,null,null,null,null,null,null,null,null,null,null,null,null,null,null,null,null,null,null]],"timingvisible":false,"tabcounter":25,"stave":3,"totalstaves":4,"instrument":"6guitar","selectedtuning":"Drop C","version":"13"}

Member for

7 months 1 week
Submitted by smayo87 on Tue, 2020-06-09 09:00