The Defeatist Verse and Bridge

Chords

01234567891011121314151617181920212223
E
B
G
D
A
E
B
0 1 2 3 4 5 6 7 8 9 10 11 12 13 14 15 16 17 18 19 20 21 22 23
(/) Slide Up  (\) Slide Down  (h) Hammer On  (p) Pull Off  (b) Bend (r) Release (v) Vibrato

Stave 1:

D|-----------------------------------------------------------------------------
A|-----------------------------------------------------------------------------
F|-----------------------------------------------------------------------------
C|-----------------------------------------------------------------------------
A|--------5--5--------3--5--7--------3--5--8--------10--8--7-------------------
C|--0--0--------0--0-----------0--0-----------0--0------------10--8--7--8--10--

Stave 2:

D|------------------------------------------------------------------------------
A|------------------------------------------------------------------------------
F|------------------------------------------------------------------------------
C|--------------------------------------------------------------------------14--
A|--------5--5--------3--5--7--------3--5--6--------------------12--14--15------
C|--0--0--------0--0-----------0--0-----------0--0--10--12--13------------------

Stave 3:

D|--------------------------------------------------------------------------------------------------------
A|--------------------------------------------------------------------------------------------------------
F|--------------------------------------------------------------------------------------------------------
C|--3--3--3--3--3--2--2--2--2--2--------------------------------------------------------------------------
A|--1--1--1--1--1--0--0--0--0--0-----------------------4-----------3-----------------------4--------1--1--
C|--------------------------------0--3--1--0--4--3--0-----4--3--4-----0--3--1--0--4--3--0-----4--0--1--1--

Stave 4:

D|-------------------------------------------------------------------------------------------------------
A|-------------------------------------------------------------------------------------------------------
F|-------------------------------------------------------------------------------------------------------
C|--3--3--3--3--10--10--10--10--10-----------------------------------------------------------------------
A|--1--1--1--1--8---8---8---8---8------------------------4-----------3-----------------------0--0--0--0--
C|----------------------------------0--3--1--0--4--3--0-----4--3--4-----0--3--1--0--4--3--0--0--0--0--0--

Stave 5:

D|--
A|--
F|--
C|--
A|--
C|--

							http://www.guitartabcreator.com
genre
Instruments
{"strings":[[[".",".",".",".",".",".",".",".",".",".",".",".",".",".",".",".",".",".",".",".",".",".",".","."],[".",".",".",".",".",".",".",".",".",".",".",".",".",".",".",".",".",".",".",".",".",".",".","."],[".",".",".",".",".",".",".",".",".",".",".",".",".",".",".",".",".",".",".",".",".",".",".","."],[".",".",".",".",".",".",".",".",".",".",".",".",".",".",".",".",".",".",".",".",".",".",".","."],[".",".",5,5,".",".",3,5,7,".",".",3,5,8,".",".",10,8,7,".",".",".",".","."],[0,0,".",".",0,0,".",".",".",0,0,".",".",".",0,0,".",".",".",10,8,7,8,10]],[[".",".",".",".",".",".",".",".",".",".",".",".",".",".",".",".",".",".",".",".",".",".","."],[".",".",".",".",".",".",".",".",".",".",".",".",".",".",".",".",".",".",".",".",".",".","."],[".",".",".",".",".",".",".",".",".",".",".",".",".",".",".",".",".",".",".",".",".",".","."],[".",".",".",".",".",".",".",".",".",".",".",".",".",".",".",".",".",".",".",".",".",".",14],[".",".",5,5,".",".",3,5,7,".",".",3,5,6,".",".",".",".",".",12,14,15,"."],[0,0,".",".",0,0,".",".",".",0,0,".",".",".",0,0,10,12,13,".",".",".","."]],[[".",".",".",".",".",".",".",".",".",".",".",".",".",".",".",".",".",".",".",".",".",".",".",".",".",".",".",".",".",".",".",".",".","."],[".",".",".",".",".",".",".",".",".",".",".",".",".",".",".",".",".",".",".",".",".",".",".",".",".",".",".",".",".",".",".",".",".","."],[".",".",".",".",".",".",".",".",".",".",".",".",".",".",".",".",".",".",".",".",".",".",".",".",".",".",".",".",".",".",".",".",".","."],[3,3,3,3,3,2,2,2,2,2,".",".",".",".",".",".",".",".",".",".",".",".",".",".",".",".",".",".",".",".",".",".",".","."],[1,1,1,1,1,0,0,0,0,0,".",".",".",".",".",".",".",4,".",".",".",3,".",".",".",".",".",".",".",4,".",".",1,1],[".",".",".",".",".",".",".",".",".",0,0,3,1,0,4,3,0,".",4,3,4,".",0,3,1,0,4,3,0,".",4,0,1,1]],[[".",".",".",".",".",".",".",".",".",".",".",".",".",".",".",".",".",".",".",".",".",".",".",".",".",".",".",".",".",".",".","."],[".",".",".",".",".",".",".",".",".",".",".",".",".",".",".",".",".",".",".",".",".",".",".",".",".",".",".",".",".",".",".","."],[".",".",".",".",".",".",".",".",".",".",".",".",".",".",".",".",".",".",".",".",".",".",".",".",".",".",".",".",".",".",".","."],[3,3,3,3,10,10,10,10,10,".",".",".",".",".",".",".",".",".",".",".",".",".",".",".",".",".",".",".",".",".",".","."],[1,1,1,1,8,8,8,8,8,".",".",".",".",".",".",".",4,".",".",".",3,".",".",".",".",".",".",".",0,0,0,0],[".",".",".",".",".",".",".",".",".",0,3,1,0,4,3,0,".",4,3,4,".",0,3,1,0,4,3,0,0,0,0,0]],[[],[],[],[],[],[]]],"numberofstrings":6,"notes":["D","A","F","C","A","C"],"capo":0,"stringnotes":["D3","A2","F2","C2","G1","C1"],"comments":["Stave 1:","Stave 2:","Stave 3:","Stave 4:","Stave 5:"],"timing":[["W","W","W","W","W","W","W","W","W","W","W","W","W","W","W","W","W","W","W","W","W","W","W","W"],["W","W","W","W","W","W","W","W","W","W","W","W","W","W","W","W","W","W","W","W","W","W","W"],["W","W","W","W","W","W","W","W","W","W","W","W","W","W","W","W","W","W","W","W","W","W","W","W","W","W","W","W","W","W","W","W","W","W"],["W","W","W","W","W","W","W","W","W","W","W","W","W","W","W","W","W","W","W","W","W","W","W","W","W","W","W","W","W","W","W","W"],[]],"timingvisible":false,"tabcounter":0,"stave":4,"totalstaves":5,"instrument":"6guitar","selectedtuning":"Drop C","version":"13"}

Member for

7 months 1 week
Submitted by smayo87 on Wed, 2020-08-12 04:50