Defeatist Groovedown

Chords

01234567891011121314151617181920212223
E
B
G
D
A
E
B
0 1 2 3 4 5 6 7 8 9 10 11 12 13 14 15 16 17 18 19 20 21 22 23
(/) Slide Up  (\) Slide Down  (h) Hammer On  (p) Pull Off  (b) Bend (r) Release (v) Vibrato

Stave 1:

D|-------------------------------------------------------------------------------
A|-------------------------------------------------------------------------------
F|-------------------------------------------------------------------------------
C|---------------------------------------------------12--8------8----------------
A|------------------8-------------------10------------------12-----12--8---------
C|--0--0--0--8--12-----0--0--0--10--14------0--0--0-----------------------12--8--

Stave 2:

D|----------------------------------------------------------------
A|----------------------------------------------------------------
F|----------------------------------------------------------------
C|-------------------------------------------------3--3--3--3--5--
A|------------------8------------------7-----------1--1--1--1--3--
C|--0--0--0--8--12-----0--0--0--7--11-----0--0--0-----------------

							http://www.guitartabcreator.com
genre
Instruments
{"strings":[[[".",".",".",".",".",".",".",".",".",".",".",".",".",".",".",".",".",".",".",".",".",".","."],[".",".",".",".",".",".",".",".",".",".",".",".",".",".",".",".",".",".",".",".",".",".","."],[".",".",".",".",".",".",".",".",".",".",".",".",".",".",".",".",".",".",".",".",".",".","."],[".",".",".",".",".",".",".",".",".",".",".",".",".",".",".",12,8,".",8,".",".",".","."],[".",".",".",".",".",8,".",".",".",".",".",10,".",".",".",".",".",12,".",12,8,".","."],[0,0,0,8,12,".",0,0,0,10,14,".",0,0,0,".",".",".",".",".",".",12,8]],[[".",".",".",".",".",".",".",".",".",".",".",".",".",".",".",".",".",".",".","."],[".",".",".",".",".",".",".",".",".",".",".",".",".",".",".",".",".",".",".","."],[".",".",".",".",".",".",".",".",".",".",".",".",".",".",".",".",".",".",".","."],[".",".",".",".",".",".",".",".",".",".",".",".",".",".",".",3,3,3,3,5],[".",".",".",".",".",8,".",".",".",".",".",7,".",".",".",1,1,1,1,3],[0,0,0,8,12,".",0,0,0,7,11,".",0,0,0,".",".",".",".","."]]],"numberofstrings":6,"notes":["D","A","F","C","A","C"],"capo":0,"stringnotes":["D3","A2","F2","C2","G1","C1"],"comments":["Stave 1:","Stave 2:"],"timing":[["W","W","W","W","W","W","W","W","W","W","W","W","W","W","W","W","W","W","W","W","W","W","W"],["W","W","W","W","W","W","W","W","W","W","W","W","W","W","W","W","W","W","W","W","W"]],"timingvisible":false,"tabcounter":19,"stave":1,"totalstaves":2,"instrument":"6guitar","selectedtuning":"Drop C","version":"13"}

Member for

5 months 3 weeks
Submitted by smayo87 on Fri, 2020-08-14 11:10