Sound will begin in 5 seconds

A-Minor Pentatonic Scale

01234567891011121314151617181920212223
E
B
G
D
A
E
B
0 1 2 3 4 5 6 7 8 9 10 11 12 13 14 15 16 17 18 19 20 21 22 23
Song Science #1: How Pros Use 6 Chords to Write Hit Songs
(/) Slide Up  (\) Slide Down  (h) Hammer On  (p) Pull Off  (b) Bend (r) Release (v) Vibrato

Stave 1:

E|--------------------------------------------0--1--3--
B|-----------------------------------0--1--3-----------
G|-----------------------------1--3--------------------
D|--------------------0--2--3--------------------------
A|-----------0--2--3-----------------------------------
E|--0--1--3--------------------------------------------

Stave 2:

E|--------------------------------3--5--
B|--------------------------3--5--------
G|--------------------2--5--------------
D|--------------2--5--------------------
A|--------3--5--------------------------
E|--3--5--------------------------------

Stave 3:

E|--------------------------------5--8--
B|--------------------------5--8--------
G|--------------------5--7--------------
D|--------------5--7--------------------
A|--------5--7--------------------------
E|--5--8--------------------------------

Stave 4:

E|-------------------------------------8--10--
B|------------------------------9--11---------
G|-----------------------8--10----------------
D|----------------7--10-----------------------
A|---------7--10------------------------------
E|--8--10-------------------------------------

Stave 5:

E|--
B|--
G|--
D|--
A|--
E|--

http://www.guitartabcreator.com
Guitar Tab Creator is intended to store guitar tab created through the tool. It currently does not support in-line text editing. Any text you place in here will be lost. If you need to comment on your tab, please use the "Tab Notes" section located below.