When we fell in love

Chords

01234567891011121314151617181920212223
E
B
G
D
A
E
B
0 1 2 3 4 5 6 7 8 9 10 11 12 13 14 15 16 17 18 19 20 21 22 23
(/) Slide Up  (\) Slide Down  (h) Hammer On  (p) Pull Off  (b) Bend (r) Release (v) Vibrato

Stave 1:

G|-----------------------
D|-----------------------
A|--2--5--------2--5-----
E|--------5-----------5--

Stave 2:

G|--------------
D|--------------
A|--------------
E|--3--5--3--5--

Stave 3:

G|--------------------------------------------------
D|--------------------------------------------------
A|--2-----------2-----------2--4--5-----------------
E|--------5-----------5--------------5--2-----3-----

Stave 4:

G|-----------------------------------
D|-----------------------------------
A|--2-----------------2--------------
E|-----3--5--0--2--------3--5--3--5--

							http://www.guitartabcreator.com
Instruments
{"title":"When we fell in love","strings":[[[".",".",".","_",".",".","."],[".",".",".","_",".",".","."],[2,5,".","_",2,5,"."],[".",".",5,"_",".",".",5]],[[".",".",".","."],[".",".",".","."],[".",".",".","."],[3,5,3,5]],[[".","_",".","_",".","_",".","_",".",".",".",".",".","_",".","_"],[".","_",".","_",".","_",".","_",".",".",".",".",".","_",".","_"],[2,"_",".","_",2,"_",".","_",2,4,5,".",".","_",".","_"],[".","_",5,"_",".","_",5,"_",".",".",".",5,2,"_",3,"_"]],[[".",".",".",".",".","_",".",".",".",".","."],[".",".",".",".",".","_",".",".",".",".","."],[2,".",".",".",".","_",2,".",".",".","."],[".",3,5,0,2,"_",".",3,5,3,5]]],"numberofstrings":4,"notes":["G","D","A","E"],"capo":0,"stringnotes":["G2","D2","A1","E1"],"comments":["Stave 1:","Stave 2:","Stave 3:","Stave 4:"],"timing":[["W","W","W",null,"W","W","W"],["W","W","W","W"],["W",null,"W",null,"W",null,"W",null,"W","W","W","W","W",null,"W"],["W","W","W","W","W",null,"W","W","W","W","W"]],"timingvisible":false,"tabcounter":11,"stave":3,"totalstaves":4,"instrument":"4bass","selectedtuning":"4bass_standard","version":"13"}

Member for

1 year
Submitted by SlyGuy01 on Wed, 2019-06-19 18:47