Ordinary

Chords

01234567891011121314151617181920212223
E
B
G
D
A
E
B
0 1 2 3 4 5 6 7 8 9 10 11 12 13 14 15 16 17 18 19 20 21 22 23
(/) Slide Up  (\) Slide Down  (h) Hammer On  (p) Pull Off  (b) Bend (r) Release (v) Vibrato

Stave 1:

G|--------------------------------------
D|--3--3--3--2--2--2-----------0--------
A|--------------------1--1--1-----3--3--
E|--------------------------------------

Stave 2:

G|-----------------------------------------
D|--------3-----------------3--------0--2--
A|--1-----------3-----1-----------3--------
E|-----------------------------------------

							http://www.guitartabcreator.com
Instruments
{"title":"Ordinary","strings":[[[".",".",".",".",".",".",".",".",".",".",".","."],[3,3,3,2,2,2,".",".",".",0,".","."],[".",".",".",".",".",".",1,1,1,".",3,3],[".",".",".",".",".",".",".",".",".",".",".","."]],[[".","_",".","_",".","_",".","_",".","_",".",".","."],[".","_",3,"_",".","_",".","_",3,"_",".",0,2],[1,"_",".","_",3,"_",1,"_",".","_",3,".","."],[".","_",".","_",".","_",".","_",".","_",".",".","."]]],"numberofstrings":4,"notes":["G","D","A","E"],"capo":"0","stringnotes":["G2","D2","A1","E1"],"comments":["Stave 1:","Stave 2:","Stave 3:"],"timing":[["W","W","W","W","W","W","W","W","W","W","W","W"],["W","W","W",null,"W",null,"W",null,"W",null,"W","W","W"],[]],"timingvisible":false,"tabcounter":0,"totalstaves":2,"instrument":"4bass","selectedtuning":"4bass_standard","version":"13"}

Member for

1 year
Submitted by SlyGuy01 on Wed, 2019-06-19 17:15