I lost a friend

Chords

01234567891011121314151617181920212223
E
B
G
D
A
E
B
0 1 2 3 4 5 6 7 8 9 10 11 12 13 14 15 16 17 18 19 20 21 22 23
(/) Slide Up  (\) Slide Down  (h) Hammer On  (p) Pull Off  (b) Bend (r) Release (v) Vibrato

Stave 1:

G|--------------------------------------------------
D|--------------------------------------------------
A|--7--7--7--7--4--4--4--4--------------------------
E|--------------------------4--4--4--4--7--7--7--7--

Stave 2:

G|--------------------------------------------------
D|--------------------------------------------------
A|--------------4--4--4--4--------------2--2--2--2--
E|--0--0--0--0--------------4--4--4--4--------------

							http://www.guitartabcreator.com
Instruments
{"title":"I lost a friend","strings":[[[".",".",".",".",".",".",".",".",".",".",".",".",".",".",".","."],[".",".",".",".",".",".",".",".",".",".",".",".",".",".",".","."],[7,7,7,7,4,4,4,4,".",".",".",".",".",".",".","."],[".",".",".",".",".",".",".",".",4,4,4,4,7,7,7,7]],[[".",".",".",".",".",".",".",".",".",".",".",".",".",".",".","."],[".",".",".",".",".",".",".",".",".",".",".",".",".",".",".","."],[".",".",".",".",4,4,4,4,".",".",".",".",2,2,2,2],[0,0,0,0,".",".",".",".",4,4,4,4,".",".",".","."]]],"numberofstrings":4,"notes":["G","D","A","E"],"capo":0,"stringnotes":["G2","D2","A1","E1"],"comments":["Stave 1:","Stave 2:"],"timing":[["W","W","W","W","W","W","W","W","W","W","W","W","W","W","W","W"],["W","W","W","W","W","W","W","W","W","W","W","W","W","W","W","W"]],"timingvisible":false,"tabcounter":16,"stave":1,"totalstaves":2,"instrument":"4bass","selectedtuning":"4bass_standard","version":"13"}

Member for

1 year
Submitted by SlyGuy01 on Mon, 2019-09-16 14:02