Sound will begin in 5 seconds

I always wanna die sometimes

01234567891011121314151617181920212223
E
B
G
D
A
E
B
0 1 2 3 4 5 6 7 8 9 10 11 12 13 14 15 16 17 18 19 20 21 22 23
(/) Slide Up  (\) Slide Down  (h) Hammer On  (p) Pull Off  (b) Bend (r) Release (v) Vibrato

Stave 1:

G|--------------------------------------------------------
D|--2--2-----2--2--------------2--2-----------------------
A|--------------------------2-----------4-----2-----------
E|--------------------2--4--------------------------5-----

Stave 2:

G|-----------------------------------
D|--2--2--------------2--2-----------
A|-----------------2-----------2-----
E|-----------2--4-----------------5--

Stave 3:

G|--------------------------------
D|--------------------------------
A|-----------6--7--4--4--4--4--4--
E|--4--4--4-----------------------

Stave 4:

G|--------------------------
D|--------2-----------------
A|-----0-----4--2--------0--
E|--2--------------2--2-----

Stave 5:

G|-----------------------------
D|-----------------------------
A|-----4-----------4-----------
E|--4-----5--7--8-----7--5--7--

Stave 6:

G|--------------
D|--2-----------
A|-----4--2--0--
E|--------------

http://www.guitartabcreator.com
Guitar Tab Creator is intended to store guitar tab created through the tool. It currently does not support in-line text editing. Any text you place in here will be lost. If you need to comment on your tab, please use the "Tab Notes" section located below.