Hold Me While you Wait

Chords

01234567891011121314151617181920212223
E
B
G
D
A
E
B
0 1 2 3 4 5 6 7 8 9 10 11 12 13 14 15 16 17 18 19 20 21 22 23
(/) Slide Up  (\) Slide Down  (h) Hammer On  (p) Pull Off  (b) Bend (r) Release (v) Vibrato

Stave 1:

G|--------------------------
D|-----------1--------1-----
A|--2--2--2--------2--------
E|--------------0--------0--

Stave 2:

G|--------------------
D|--------------------
A|-----2--------2-----
E|--4-----2--4-----2--

Stave 3:

G|--------------
D|-----1--------
A|--2-----------
E|--------4--2--

Stave 4:

G|--------------------------
D|--------------1-----------
A|-----------2--------------
E|--0--2--4--------0--2--4--

							http://www.guitartabcreator.com
Instruments
{"title":"Hold Me While you Wait","strings":[[[".",".",".",".",".",".",".","."],[".",".",".",1,".",".",1,"."],[2,2,2,".",".",2,".","."],[".",".",".",".",0,".",".",0]],[[".",".",".",".",".","."],[".",".",".",".",".","."],[".",2,".",".",2,"."],[4,".",2,4,".",2]],[[".",".",".","."],[".",1,".","."],[2,".",".","."],[".",".",4,2]],[[".",".",".",".",".",".",".","."],[".",".",".",".",1,".",".","."],[".",".",".",2,".",".",".","."],[0,2,4,".",".",0,2,4]]],"numberofstrings":4,"notes":["G","D","A","E"],"capo":0,"stringnotes":["G2","D2","A1","E1"],"comments":["Stave 1:","Stave 2:","Stave 3:","Stave 4:"],"timing":[["W","W","W","W","W","W","W","W"],["W","W","W","W","W","W"],["W","W","W","W"],["W","W","W","W","W","W","W","W"]],"timingvisible":false,"tabcounter":8,"stave":3,"totalstaves":4,"instrument":"4bass","selectedtuning":"4bass_standard","version":"13"}

Member for

1 year
Submitted by SlyGuy01 on Fri, 2019-07-05 19:32