Sound will begin in 5 seconds

Whiskey & Sunshine

Chords
01234567891011121314151617181920212223
E
B
G
D
A
E
B
0 1 2 3 4 5 6 7 8 9 10 11 12 13 14 15 16 17 18 19 20 21 22 23
Song Science #1: How Pros Use 6 Chords to Write Hit Songs
(/) Slide Up  (\) Slide Down  (h) Hammer On  (p) Pull Off  (b) Bend (r) Release (v) Vibrato

Stave 1:

E|-----1--3--0--
B|--1--3--3--1--
G|--0--2--0--2--
D|--2--0--0--2--
A|--3-----2--0--
E|--------3-----

Stave 2:

E|-----------5-----------3--------------------3----------------12------------10----------------8---------
B|--5-----5-----5-----------5--------3--5--------5--10-----10------10------------10--8--10--------10-----
G|-----0-----------0-----------0------------------------0--------------0------------------------------0--
D|-------------------------------------------------------------------------------------------------------
A|--3-----------------3-----------3--------3--------8---------------------8----------8------8------------
E|-------------------------------------------------------------------------------------------------------

Stave 3:

E|-------------12------------10----------------8-----------
B|--10-----10------10------------10--8--10-----------8-----
G|------0--------------0-----------------------------------
D|---------------------------------------------------------
A|--8---------------------8----------8------8-----8-----8--
E|---------------------------------------------------------

Stave 4:

E|----------------0--------------0--------------0----------------0--------------0--------------0--
B|------------10--------------8--------------8---------------10--------------8--------------8-----
G|------0---------------0--------------0---------------0---------------0--------------0-----------
D|---------9---------------7--------------7---------------9---------------7--------------7--------
A|--10---------------0--------------0--------------10---------------0--------------0--------------
E|------------------------------------------------------------------------------------------------

Stave 5:

E|-----------0-----------0-----------0-----------0-----------0-----------0-----------0-----------
B|--------6-----------6-----------6-----------6-----------3-----------3-----------3-----------3--
G|-----0-----------0-----------0-----------0-----------0-----------0-----------0-----------0-----
D|--------------------------------------------------0-----------0-----------0-----------0--------
A|--3-----------3-----------3-----------3--------------------------------------------------------
E|-----------------------------------------------------------------------------------------------

Stave 6:

E|--------------------------------
B|--8--10--8--12--10--15--15--17--
G|--------------------------------
D|--------------------------------
A|--------------------------------
E|--------------------------------

Stave 7:

E|--------------------
B|--------------------
G|--5--7--9--5--7--9--
D|--------------------
A|--------------------
E|--------------------

Stave 8:

E|--------------------------
B|--13--15--17--13--15--17--
G|--------------------------
D|--------------------------
A|--------------------------
E|--------------------------

http://www.guitartabcreator.com
Guitar Tab Creator is intended to store guitar tab created through the tool. It currently does not support in-line text editing. Any text you place in here will be lost. If you need to comment on your tab, please use the "Tab Notes" section located below.