Sound will begin in 5 seconds

Paper Moon

Chords
01234567891011121314151617181920212223
E
B
G
D
A
E
B
0 1 2 3 4 5 6 7 8 9 10 11 12 13 14 15 16 17 18 19 20 21 22 23
Song Science #1: How Pros Use 6 Chords to Write Hit Songs
(/) Slide Up  (\) Slide Down  (h) Hammer On  (p) Pull Off  (b) Bend (r) Release (v) Vibrato

Stave 1:

E|------------------------------------------------------------------------------
B|------------------------------------------------------------------------------
G|--14--17--14--12--14--17--19--17--19--16--16--17--16--14--12--13--12--10--9---
D|--------------------------------------------------------------------------10--
A|--12--15--12--10--12--15--17--15--17--14--14--15--14--12--10--11--10--8---7---
D|--0---------------------------------------------------------------------------

Stave 2:

E|--0--0---0---0---0-----0--0--0---8------0--
B|--7--10--13--10--1-----7--7--10--12-----7--
G|--7--10--14--10--4-----7--7--10--12-----7--
D|--0--9---12--9---5-----0--0--9---10-----0--
A|-------------------------------------------
D|--------------------0----------------0-----

Stave 3:

E|---------------0--------------0--
B|------------1-----1-----------7--
G|---------4-----------4--------7--
D|--12--5-----------------5-----0--
A|--12-----------------------------
D|--12-----------------------0-----

Stave 4:

E|-----0--0--0-----0--0--------0--0--0-----
B|-----7--5-----5--6-----6-----3-----1--1--
G|-----7--6--------5--------5--4-----2-----
D|-----0-----------------------------------
A|-----------------------------------------
D|--0--------------------------------------

Stave 5:

E|--8------------------------------
B|-----12--------------12----------
G|---------12------12------12------
D|-------------10--------------10--
A|---------------------------------
D|---------------------------------

Stave 6:

E|--0-----------0-------------0--------------
B|-----7-----------10------------13----------
G|--------7------------10------------14------
D|-----------0-------------9-------------12--
A|-------------------------------------------
D|-------------------------------------------

Stave 7:

E|--------------------------------------------------------------
B|--------------------------------------------------------------
G|--------7-----------7-----------7-----------7-----------5-----
D|-----7-----7-----7-----7-----7-----7-----7-----7-----5-----5--
A|--5-----------5-----------5-----------5-----------3-----------
D|--------------------------------------------------------------

http://www.guitartabcreator.com
Guitar Tab Creator is intended to store guitar tab created through the tool. It currently does not support in-line text editing. Any text you place in here will be lost. If you need to comment on your tab, please use the "Tab Notes" section located below.