Sound will begin in 5 seconds

La Chaleur

Chords
01234567891011121314151617181920212223
E
B
G
D
A
E
B
0 1 2 3 4 5 6 7 8 9 10 11 12 13 14 15 16 17 18 19 20 21 22 23
Song Science #1: How Pros Use 6 Chords to Write Hit Songs
(/) Slide Up  (\) Slide Down  (h) Hammer On  (p) Pull Off  (b) Bend (r) Release (v) Vibrato

Stave 1:

E|---------------------8---------10--------------------
B|--------------8---------8------8---8-----------------
G|-----8h10--------10--------10--8------8--------------
D|--8--------8-------------------10--------10/12\10p8--
A|-----------------------------------------------------
E|-----------------------------------------------------

Stave 2:

E|------------------------------------------------------------------------------
B|------------------------------------------------------------------------------
G|------------------------------------------------------------------------------
D|--8-----8------8--10p8------8--8-----8--8-----8------8--10p8------8--8-----8--
A|--8h10-----10-----10----10-----8h10-----8h10-----10-----10----10-----8h10-----
E|------------------------------------------------------------------------------

Stave 3:

E|--------------------------------------------------------------------------
B|--------------------------------------------------------------------------
G|--------------------------------------------------------------------------
D|--15--15------12--12------12------15--15------12--15/17---------15p13\12--
A|--13--13--13----------13------13--13--13--13-------------15\13------------
E|--------------------------------------------------------------------------

Stave 4:

E|-----------------------------------------------
B|-----------------------------------------------
G|--10-----10------10--12p10------10--10-----10--
D|--10h12------12-------------12------10h12------
A|-----------------------------------------------
E|-----------------------------------------------

Stave 5:

E|---------------------------------------------
B|-------------------------11--10--------------
G|--10-----10------10--12----------12--10------
D|--10h12------12------12------------------12--
A|---------------------------------------------
E|---------------------------------------------

http://www.guitartabcreator.com
Guitar Tab Creator is intended to store guitar tab created through the tool. It currently does not support in-line text editing. Any text you place in here will be lost. If you need to comment on your tab, please use the "Tab Notes" section located below.