Sound will begin in 5 seconds

Hounds (Bass)

01234567891011121314151617181920212223
E
B
G
D
A
E
B
0 1 2 3 4 5 6 7 8 9 10 11 12 13 14 15 16 17 18 19 20 21 22 23
Song Science #1: How Pros Use 6 Chords to Write Hit Songs
(/) Slide Up  (\) Slide Down  (h) Hammer On  (p) Pull Off  (b) Bend (r) Release (v) Vibrato

Stave 1:

G|-----7--9-----11--------7--
D|--5--------7------9--7-----
A|---------------------------
D|---------------------------

Stave 2:

G|--------------
D|--------------
A|-----------3--
D|--5--0--2-----

Stave 3:

G|--------
D|--------
A|--0--2--
D|--------

Stave 4:

G|--------
D|--5--2--
A|--------
D|--------

Stave 5:

G|--5--2--4--------------5--
D|-----------5--2--5--4-----
A|--------------------------
D|--------------------------

Stave 6:

G|--------------------------
D|--------------------------
A|--3--0--2--------------5--
D|-----------5--2--5--4-----

http://www.guitartabcreator.com
Guitar Tab Creator is intended to store guitar tab created through the tool. It currently does not support in-line text editing. Any text you place in here will be lost. If you need to comment on your tab, please use the "Tab Notes" section located below.