Sound will begin in 5 seconds

Hounds

Chords
01234567891011121314151617181920212223
E
B
G
D
A
E
B
0 1 2 3 4 5 6 7 8 9 10 11 12 13 14 15 16 17 18 19 20 21 22 23
Song Science #1: How Pros Use 6 Chords to Write Hit Songs
(/) Slide Up  (\) Slide Down  (h) Hammer On  (p) Pull Off  (b) Bend (r) Release (v) Vibrato

Stave 1:

E|--------------
B|--0--3--8--7--
G|--0--4--7--5--
D|--2--4--9--7--
A|--3--5--7--5--
D|--------------

Stave 2:

E|--------------------------------------
B|--------0--3-----3--------8--7-----7--
G|--------0--4-----4--------7--5-----5--
D|-----2-----4-----4-----9-----7-----7--
A|--3--------5--5-----7--------5--5-----
D|--------------------------------------

Stave 3:

E|-----0--2-----
B|--8--0--0--0--
G|--7--7--0--0--
D|--5--4--2--2--
A|-----5-----3--
D|--5--0--2-----

Stave 4:

E|-----------------------------------------0-----------------------2-----2--0--------------------------------
B|--8--8-----8--8--------8--------------------0--------0-----------0-----0-----0-----0--3--0-----------------
G|--7--7-----7--7--------7-----------7--------------7--------------------0-----0-----0--0--------0-----------
D|--5--5-----5--5-----5--------------4--------------------4--2-----------------2-----2--2-----------2--------
A|--------------------------------5--------------------------------------------3--3-----3-----3--------3--5--
D|--5-----5--------5--------5--0--------0--------0--------------2-----2--------------------------------------

Stave 5:

E|-----------------------------------------------------------
B|--------1-----1--3--1--0--1-----------3-----5--3-----5--3--
G|--------0-----0--0--0--0--0-----------2-----2--------2--2--
D|-----2--------2--4--2--0--2--------4--------4--------4--4--
A|--0--------0-----------------0--2--------2--2-----2--2-----
D|-----------------------------------------------------------

Stave 6:

E|--------------------0--2--
B|--3--3--------3--3--0-----
G|--0--0--2--4--0--0--2-----
D|--2-----4-----------------
A|--------------2-----------
D|--------------------------

http://www.guitartabcreator.com
Guitar Tab Creator is intended to store guitar tab created through the tool. It currently does not support in-line text editing. Any text you place in here will be lost. If you need to comment on your tab, please use the "Tab Notes" section located below.