Sound will begin in 5 seconds

Pitch Black

Chords
01234567891011121314151617181920212223
E
B
G
D
A
E
B
0 1 2 3 4 5 6 7 8 9 10 11 12 13 14 15 16 17 18 19 20 21 22 23
Song Science #1: How Pros Use 6 Chords to Write Hit Songs
(/) Slide Up  (\) Slide Down  (h) Hammer On  (p) Pull Off  (b) Bend (r) Release (v) Vibrato

Capo Fret 2

Stave 1:

E|-----------------|-----------------|------------------------|--------------------|--
B|-----------------|-----------------|------------------------|-----------0--0-----|--
G|-----------0-----|-----------0-----|-----0--0h2--0--0h2--0--|--2-----2-----------|--
D|--------0--------|--------0--------|--0---------------------|-----0--------------|--
A|-----2-----------|-----2-----------|------------------------|--------------------|--
E|--3--------------|--3--------------|------------------------|--3-----------------|--

Stave 2:

E|---------------------------|--------------------------------|----------------------------------|--
B|---------------------------|--------------------------------|-------------------0--------------|--
G|--------0--0h2--0--0h2--0--|-----------0--0--------------0--|--0h2--------2-----------------2--|--
D|-----0---------------------|--4-----4-----------------4-----|----------0-----------------0-----|--
A|---------------------------|-----2-----------------2--------|-------0-----------------0--------|--
E|--3------------------------|--0-----------------0-----------|----0-----------------0-----------|--

Stave 3:

E|-------------------|-------------------------------------------------------------------------0-----|--
B|-------------------|-------------------------------------------------------------------------0-----|--
G|--------0h2-----0--|--------0--------0--------0--------0-----------0--------0----------0-----0-----|--
D|--4----------------|-----0--------0--------0--------0-----0-----0--------0----------0--------0-----|--
A|-------------------|-------------------------------------------------------------------------0-----|--
E|-------------------|--0--------2--------3--------2-----------0--------2--------2/3-----------0-----|--

Stave 4:

E|-------------------------------------------------------------|-----------------|-----------------|--
B|-------------------------------------------------------------|-----------------|-----------------|--
G|-----------0--------0--------0----------0-----------0--------|-----------0-----|-----------0-----|--
D|--------0--------0--------0----------0-----0-----0--------0--|--------0--------|--------0--------|--
A|-------------------------------------------------------------|-----2-----------|-----2-----------|--
E|-----0--------2--------3--------3/5-----------0--------2-----|--3--------------|--3--------------|--

Stave 5:

E|------------------------|--------------------|---------------------------|-----------------|--
B|------------------------|-----------0--0-----|--------3--2h3--2--2h3--2--|--3-----3--3-----|--
G|-----0--0h2--0--0h2--0--|--2-----2-----------|---------------------------|-----2-----------|--
D|--0---------------------|-----0--------------|-----0---------------------|-----------------|--
A|------------------------|--------------------|---------------------------|--3--------2-----|--
E|------------------------|--3-----------------|--0------------------------|-----------------|--

Stave 6:

E|-----------------------|-----0--0h1--0--------|--------------------------------------------------|--
B|-----3--3-----3--3-----|--3-------------3-----|--0h1-----1--1--------0--0h1-----1--1/3-----|--
G|--2--------2-----------|----------------------|---------0-----------0------------0------------0--|--
D|-----------------------|----------------------|----------------------------------------0-------|--
A|--------3--------2-----|----------------------|--0----------------------0--------------------|--
E|-----------------------|----------------------|--------------------------------------------------|--

Stave 7:

E|-------------------------|--------------------------|--------------------------------2-----0--2--2h3--|--
B|-----------0h1p0-----|-----------------------3--|--3-----3--3--------3--3-----3---------------------|--
G|--2-----2----------------|--------2-----------0-----|-----0-----------0--------0------------------------|--
D|-----0-------------------|-----0-----0-----0--------|--------------------------------------------0----|--
A|-------------------------|--------------------------|--3--------2-----------3--------1------------------|--
E|--3----------------------|--3-----------3-----------|--------------------------------------------3----|--

Stave 8:

E|--3--3h5--3--3h5--3--|-----------------------------|---------------------------|--
B|-----------------------|-----------0--0--------0-----|---------------------------|--
G|-----------------------|--2-----2-----------2--------|--------0--0h2--0--0h2--0--|--
D|-----------------------|-----0-----------0-----------|-----0---------------------|--
A|-----------------------|-----------------------------|---------------------------|--
E|-----------------------|--3--------------------------|--3------------------------|--

Stave 9:

E|--------------------------------------|------------------
B|-----------------------0--------------|------------------
G|-----------0--0-----0--------------0--|--0h2--------2--
D|--4-----4--------4--------------4-----|------------0-----
A|-----2-----------------------2--------|---------0--------
E|--0-----------------------0-----------|------0-----------

http://www.guitartabcreator.com
Guitar Tab Creator is intended to store guitar tab created through the tool. It currently does not support in-line text editing. Any text you place in here will be lost. If you need to comment on your tab, please use the "Tab Notes" section located below.