SOJA Got Time

Chords

01234567891011121314151617181920212223
E
B
G
D
A
E
B
0 1 2 3 4 5 6 7 8 9 10 11 12 13 14 15 16 17 18 19 20 21 22 23
(/) Slide Up  (\) Slide Down  (h) Hammer On  (p) Pull Off  (b) Bend (r) Release (v) Vibrato

Stave 1:

E|----------------------------------------------------------------------------------------------
B|----------------6/8---------------------------------------------------------------------------
G|--8\7-------------------------7/8--------------------------------7----------------------------
D|--------------------------------------------------------10\8------------------------10--------
A|-----------------------------------------------------------------------------10---------------
E|----------------------------------------------------------------------------------------------

Stave 2:

E|---------------------------------------------------------------------------------------------
B|---------------------------------------------------------------------------------------------
G|--------7-----------------------------------------8-----------8/10--10--10\8--8--------------
D|---------------------------------------------------------------------------------------------
A|--8/10--------------------------------------8/10---------------------------------------------
E|---------------------------------------------------------------------------------------------

Bridge

E|-----------------------------------------------------------------------------------
B|-----------------------------------------------------------------------------------
G|-----------------------------------------------------------------------------------
D|--------------5-----------------------3--------------------------------------------
A|--------------------------------------------------6\5--------5/6\5-----------------
E|--15\3-----------------3--5--6--5--3-----------------------------------------------

Stave 4:

E|-------------------------------------------------------------------------------
B|-----------------------------------------------------------6/8--------6--6--6--
G|--------------------------------5--7--5--7--8----------------------------------
D|-----------------------------8-------------------------------------------------
A|-------------------------------------------------------------------------------
E|--3--5--6--5--3----------------------------------------------------------------

							http://www.guitartabcreator.com
Instruments
{"strings":[[[".",".",".","_","_","_",".",".",".","_","_","_",".",".",".","_","_","_","_","_","_","_",".",".",".","_",".","_","_","_",".","_",".","_","_"],[".",".",".","_","_","_",6,"/",8,"_","_","_",".",".",".","_","_","_","_","_","_","_",".",".",".","_",".","_","_","_",".","_",".","_","_"],[8,"\\",7,"_","_","_",".",".",".","_","_","_",7,"/",8,"_","_","_","_","_","_","_",".",".",".","_",7,"_","_","_",".","_",".","_","_"],[".",".",".","_","_","_",".",".",".","_","_","_",".",".",".","_","_","_","_","_","_","_",10,"\\",8,"_",".","_","_","_",".","_",10,"_","_"],[".",".",".","_","_","_",".",".",".","_","_","_",".",".",".","_","_","_","_","_","_","_",".",".",".","_",".","_","_","_",10,"_",".","_","_"],[".",".",".","_","_","_",".",".",".","_","_","_",".",".",".","_","_","_","_","_","_","_",".",".",".","_",".","_","_","_",".","_",".","_","_"]],[[".",".",".",".","_","_","_","_","_","_","_","_","_","_","_",".",".",".",".","_","_","_",".",".",".",".",".",".",".",".","_","_","_","_"],[".",".",".",".","_","_","_","_","_","_","_","_","_","_","_",".",".",".",".","_","_","_",".",".",".",".",".",".",".",".","_","_","_","_"],[".",".",".",7,"_","_","_","_","_","_","_","_","_","_","_",".",".",".",8,"_","_","_",8,"/",10,10,10,"\\",8,8,"_","_","_","_"],[".",".",".",".","_","_","_","_","_","_","_","_","_","_","_",".",".",".",".","_","_","_",".",".",".",".",".",".",".",".","_","_","_","_"],[8,"/",10,".","_","_","_","_","_","_","_","_","_","_","_",8,"/",10,".","_","_","_",".",".",".",".",".",".",".",".","_","_","_","_"],[".",".",".",".","_","_","_","_","_","_","_","_","_","_","_",".",".",".",".","_","_","_",".",".",".",".",".",".",".",".","_","_","_","_"]],[[".",".",".","_","_",".","_","_",".",".",".",".",".",".","_","_","_",".",".",".","_","_",".",".",".",".",".","_","_","_","_","_"],[".",".",".","_","_",".","_","_",".",".",".",".",".",".","_","_","_",".",".",".","_","_",".",".",".",".",".","_","_","_","_","_"],[".",".",".","_","_",".","_","_",".",".",".",".",".",".","_","_","_",".",".",".","_","_",".",".",".",".",".","_","_","_","_","_"],[".",".",".","_","_",5,"_","_",".",".",".",".",".",3,"_","_","_",".",".",".","_","_",".",".",".",".",".","_","_","_","_","_"],[".",".",".","_","_",".","_","_",".",".",".",".",".",".","_","_","_",6,"\\",5,"_","_",5,"/",6,"\\",5,"_","_","_","_","_"],[15,"\\",3,"_","_",".","_","_",3,5,6,5,3,".","_","_","_",".",".",".","_","_",".",".",".",".",".","_","_","_","_","_"]],[[".",".",".",".",".","_","_","_","_",".",".",".",".",".",".","_","_","_","_",".",".",".","_","_",".",".","."],[".",".",".",".",".","_","_","_","_",".",".",".",".",".",".","_","_","_","_",6,"/",8,"_","_",6,6,6],[".",".",".",".",".","_","_","_","_",".",5,7,5,7,8,"_","_","_","_",".",".",".","_","_",".",".","."],[".",".",".",".",".","_","_","_","_",8,".",".",".",".",".","_","_","_","_",".",".",".","_","_",".",".","."],[".",".",".",".",".","_","_","_","_",".",".",".",".",".",".","_","_","_","_",".",".",".","_","_",".",".","."],[3,5,6,5,3,"_","_","_","_",".",".",".",".",".",".","_","_","_","_",".",".",".","_","_",".",".","."]]],"numberofstrings":6,"notes":["E","B","G","D","A","E","B"],"capo":0,"stringnotes":["E4","B3","G3","D3","A2","E2"],"comments":["Stave 1:","Stave 2:","Bridge","Stave 4:"],"timing":[["W","W","W",null,null,null,"W",null,"W",null,null,null,"W",null,"W",null,null,null,null,null,null,null,"W",null,"W",null,"W",null,null,null,"W",null,"W"],["W",null,"W","W",null,null,null,null,null,null,null,null,null,null,null,"W",null,"W","W",null,null,null,"W",null,"W","W","W",null,"W","W"],["W",null,"W",null,"W","W","W",null,"W","W","W","W","W","W",null,null,null,"W",null,"W",null,null,"W",null,"W",null,"W"],["W","W","W","W","W",null,null,null,null,"W","W","W","W","W","W",null,null,null,null,"W",null,"W",null,"W","W","W","W"]],"timingvisible":false,"tabcounter":27,"stave":3,"totalstaves":4,"instrument":"6guitar","selectedtuning":"6_standard","version":"13"}

Member for

1 week 3 days
Submitted by skuallpa on Sat, 2020-05-23 05:31