Kimmy - Blaze up the faya

Chords

01234567891011121314151617181920212223
E
B
G
D
A
E
B
0 1 2 3 4 5 6 7 8 9 10 11 12 13 14 15 16 17 18 19 20 21 22 23
(/) Slide Up  (\) Slide Down  (h) Hammer On  (p) Pull Off  (b) Bend (r) Release (v) Vibrato

Stave 1:

E|-----------------------------------------------------------------------------------
B|-----------------------------------------------------------------------------------
G|-----------------7-----------------5--------5--5--7--5-----------------------------
D|--------------5-----8--7--5--7--8--------------------------------------------------
A|-----------------------------------------------------------------------------------
E|-----------------------------------------------------------------------------------

Stave 2:

E|--6-----6-----6-----6-----6-----8---------8------------10--------10/13--10------10--
B|--8-----8-----8-----8-----8-----10--------10-----------11-------------------13------
G|--7-----7-----7-----7-----7-----8---------8------------12---------------------------
D|------------------------------------------------------------------------------------
A|------------------------------------------------------------------------------------
E|------------------------------------------------------------------------------------

Stave 3:

E|--6-----6-----------------------5--------------------3--
B|--8-----8-----------------------6--------------------3--
G|--7-----7-----------------------5--------------------3--
D|--------------------------------------------------------
A|--------------------------------------------------------
E|--------------------------------------------------------

Stave 4:

E|-----------3--------1--------------
B|-----------3--------1-----------3--
G|-----------3--------2-----------3--
D|--------------------------------5--
A|-----------------------------------
E|-----------------------------------

							http://www.guitartabcreator.com
Instruments
{"strings":[[["_","_","_","_",".",".",".",".",".",".",".",".","_","_",".",".",".",".","_","_","_","_","_","_","_","_","_"],["_","_","_","_",".",".",".",".",".",".",".",".","_","_",".",".",".",".","_","_","_","_","_","_","_","_","_"],["_","_","_","_",".",7,".",".",".",".",".",5,"_","_",5,5,7,5,"_","_","_","_","_","_","_","_","_"],["_","_","_","_",5,".",8,7,5,7,8,".","_","_",".",".",".",".","_","_","_","_","_","_","_","_","_"],["_","_","_","_",".",".",".",".",".",".",".",".","_","_",".",".",".",".","_","_","_","_","_","_","_","_","_"],["_","_","_","_",".",".",".",".",".",".",".",".","_","_",".",".",".",".","_","_","_","_","_","_","_","_","_"]],[[6,"_",6,"_",6,"_",6,"_",6,"_",8,"_","_",8,"_","_","_",10,"_","_",10,"/",13,10,".",10],[8,"_",8,"_",8,"_",8,"_",8,"_",10,"_","_",10,"_","_","_",11,"_","_",".",".",".",".",13,"."],[7,"_",7,"_",7,"_",7,"_",7,"_",8,"_","_",8,"_","_","_",12,"_","_",".",".",".",".",".","."],[".","_",".","_",".","_",".","_",".","_",".","_","_",".","_","_","_",".","_","_",".",".",".",".",".","."],[".","_",".","_",".","_",".","_",".","_",".","_","_",".","_","_","_",".","_","_",".",".",".",".",".","."],[".","_",".","_",".","_",".","_",".","_",".","_","_",".","_","_","_",".","_","_",".",".",".",".",".","."]],[[6,"_",6,"_","_","_","_","_","_","_",5,"_","_","_","_","_","_",3],[8,"_",8,"_","_","_","_","_","_","_",6,"_","_","_","_","_","_",3],[7,"_",7,"_","_","_","_","_","_","_",5,"_","_","_","_","_","_",3],[".","_",".","_","_","_","_","_","_","_",".","_","_","_","_","_","_","."],[".","_",".","_","_","_","_","_","_","_",".","_","_","_","_","_","_","."],[".","_",".","_","_","_","_","_","_","_",".","_","_","_","_","_","_","."]],[["_","_","_",3,"_","_",1,"_","_","_","."],["_","_","_",3,"_","_",1,"_","_","_",3],["_","_","_",3,"_","_",2,"_","_","_",3],["_","_","_",".","_","_",".","_","_","_",5],["_","_","_",".","_","_",".","_","_","_","."],["_","_","_",".","_","_",".","_","_","_","."]]],"numberofstrings":6,"notes":["E","B","G","D","A","E","B"],"capo":0,"stringnotes":["E4","B3","G3","D3","A2","E2"],"comments":["Stave 1:","Stave 2:","Stave 3:","Stave 4:"],"timing":[[null,null,null,null,"W","W","W","W","W","W","W","W",null,null,"W","W","W","W",null,null,null,null,null,null,null,null,null,"W"],["W","W","W",null,"W","W","W",null,"W",null,"W",null,null,"W",null,null,null,"W",null,null,"W",null,"W","W","W","W"],["W",null,"W",null,null,null,null,null,null,null,"W",null,null,null,null,null,null,"W"],["W",null,null,"W",null,null,"W",null,null,null,"W"]],"timingvisible":false,"tabcounter":10,"stave":3,"totalstaves":4,"instrument":"6guitar","selectedtuning":"6_standard","version":"13"}

Member for

7 months 3 weeks
Submitted by skuallpa on Sat, 2020-05-23 07:10