Culture - No Night

Chords
01234567891011121314151617181920212223
E
B
G
D
A
E
B
0 1 2 3 4 5 6 7 8 9 10 11 12 13 14 15 16 17 18 19 20 21 22 23
(/) Slide Up  (\) Slide Down  (h) Hammer On  (p) Pull Off  (b) Bend (r) Release (v) Vibrato

Intro

E|--------------------------------------------------------------------------------------------------
B|--------------------------------------------------------------------5-----------------------------
G|--------------------------------------------4--7-----------------7-----7--5--4--------------------
D|--5--5-----5--5--------5--5-----5--5--7--5--------------------------------------5--7-----4--7--5--
A|--------------------------------------------------------------------------------------5-----------
E|--------------------------------------------------------------------------------------------------

Verse (lines horns)

E|--------------------------------------------------------------------------------------------------
B|--------------------------------------------------------------------------------------------------
G|-----------------4--5--7--5--4--------------------------4--5--4-----------------------------------
D|-----------------------------------------------------7-----------7--------------------------------
A|--------------------------------------------------------------------------------------------------
E|--------------------------------------------------------------------------------------------------

End of verse (last line horns)

E|--------------------------------------------------------------------------------------------------
B|--------------------------------------------------------------------------------------------------
G|-----------------------------------------------------------------------------7--7--5--4--5--7-----
D|--------------------------------------------------------------------------------------------------
A|--------------------------------------------------------------------------------------------------
E|--------------------------------------------------------------------------------------------------

							http://www.guitartabcreator.com
Instruments
{"strings":[[[".",".","_",".",".","_","_",".",".","_",".",".",".",".",".",".","_","_","_","_","_",".",".",".",".",".",".",".","_",".",".","."],[".",".","_",".",".","_","_",".",".","_",".",".",".",".",".",".","_","_","_","_","_",".",5,".",".",".",".",".","_",".",".","."],[".",".","_",".",".","_","_",".",".","_",".",".",".",".",4,7,"_","_","_","_","_",7,".",7,5,4,".",".","_",".",".","."],[5,5,"_",5,5,"_","_",5,5,"_",5,5,7,5,".",".","_","_","_","_","_",".",".",".",".",".",5,7,"_",4,7,5],[".",".","_",".",".","_","_",".",".","_",".",".",".",".",".",".","_","_","_","_","_",".",".",".",".",".",".",".",5,".",".","."],[".",".","_",".",".","_","_",".",".","_",".",".",".",".",".",".","_","_","_","_","_",".",".",".",".",".",".",".","_",".",".","."]],[["_","_","_","_","_",".",".",".",".",".","_","_","_","_","_","_","_",".",".",".",".",".","_","_","_","_","_","_","_","_","_","_"],["_","_","_","_","_",".",".",".",".",".","_","_","_","_","_","_","_",".",".",".",".",".","_","_","_","_","_","_","_","_","_","_"],["_","_","_","_","_",4,5,7,5,4,"_","_","_","_","_","_","_",".",4,5,4,".","_","_","_","_","_","_","_","_","_","_"],["_","_","_","_","_",".",".",".",".",".","_","_","_","_","_","_","_",7,".",".",".",7,"_","_","_","_","_","_","_","_","_","_"],["_","_","_","_","_",".",".",".",".",".","_","_","_","_","_","_","_",".",".",".",".",".","_","_","_","_","_","_","_","_","_","_"],["_","_","_","_","_",".",".",".",".",".","_","_","_","_","_","_","_",".",".",".",".",".","_","_","_","_","_","_","_","_","_","_"]],[["_","_","_","_","_","_","_","_","_","_","_","_","_","_","_","_","_","_","_","_","_","_","_","_","_",".",".",".",".",".",".","_"],["_","_","_","_","_","_","_","_","_","_","_","_","_","_","_","_","_","_","_","_","_","_","_","_","_",".",".",".",".",".",".","_"],["_","_","_","_","_","_","_","_","_","_","_","_","_","_","_","_","_","_","_","_","_","_","_","_","_",7,7,5,4,5,7,"_"],["_","_","_","_","_","_","_","_","_","_","_","_","_","_","_","_","_","_","_","_","_","_","_","_","_",".",".",".",".",".",".","_"],["_","_","_","_","_","_","_","_","_","_","_","_","_","_","_","_","_","_","_","_","_","_","_","_","_",".",".",".",".",".",".","_"],["_","_","_","_","_","_","_","_","_","_","_","_","_","_","_","_","_","_","_","_","_","_","_","_","_",".",".",".",".",".",".","_"]]],"numberofstrings":6,"notes":["E","B","G","D","A","E","B"],"capo":0,"stringnotes":["E4","B3","G3","D3","A2","E2"],"comments":["Intro","Verse (lines horns)","End of verse (last line horns)"],"timing":[["W","W",null,"W","W",null,null,"W","W",null,"W","W","W","W","W","W",null,null,null,null,null,"W","W","W","W","W","W","W",null,"W","W","W","W"],[null,null,null,null,null,"W","W","W","W","W","W",null,null,null,null,null,null,"W","W","W","W","W"],[null,null,null,null,null,null,null,null,null,null,null,null,null,null,null,null,null,null,null,null,null,null,null,null,null,"W","W","W","W","W","W"]],"timingvisible":false,"tabcounter":32,"stave":2,"totalstaves":3,"instrument":"6guitar","selectedtuning":"6_standard","version":"13"}

Member for

5 days 10 hours
Submitted by skuallpa on Sat, 2020-05-23 06:36