Sound will begin in 5 seconds

Goon Squad Improved

01234567891011121314151617181920212223
E
B
G
D
A
E
B
0 1 2 3 4 5 6 7 8 9 10 11 12 13 14 15 16 17 18 19 20 21 22 23
(/) Slide Up  (\) Slide Down  (h) Hammer On  (p) Pull Off  (b) Bend (r) Release (v) Vibrato

Stave 1:

G|-----|--------------------------------------------------------------------------------------------------------------
D|--0--|--2-----2--2--0--1--2-----2--2--0--1--2-----2--2--0--1--2-----2--2--0--1--2-----2--2--0--1--2-----2--2--0--1--
A|-----|--------------------------------------------------------------------------------------------------------------
E|-----|--------------------------------------------------------------------------------------------------------------

Stave 2:

G|--------------------------------------|--
D|--2--5--0--2--5--0--2--5--0--2--5--0--|--
A|--------------------------------------|--
E|--------------------------------------|--

Stave 3:

G|--------------------------------------------------------------------------------------------------|--
D|--2-----2--2--0--1--2-----2--2--0--2--0-----0--0--0--1--2-----2--2--2--3--4-----4--4--4--3--2-----|--
A|--------------------------------------------------------------------------------------------------|--
E|--------------------------------------------------------------------------------------------------|--

Stave 4:

G|--------------2-----2--2--------------------------|--
D|--2--2--4--5--------------5--4--2-----2--2--0--1--|--
A|--------------------------------------------------|--
E|--------------------------------------------------|--

Stave 5:

G|--------------2--2--------------------------------------1--1--2-----------------------------------------------------2--
D|--2--2--4--5--------------------------2--2--4--4--5--5-----------5-----5--5--0--2--4-----4--4--2--0--------2--4--4-----
A|--------------------0--0--4--4--5--5-----------------------------------------------------------------0--4--------------
E|-----------------------------------------------------------------------------------------------------------------------

Stave 6:

G|-----------------------------------------------------2-----------------------------------------------------2--
D|--5-----5--5--0--2--4-----4--4--2--0--------2--4--4-----5-----5--5--0--2--4-----4--4--2--0--------2--4--4-----
A|--------------------------------------0--4--------------------------------------------------0--4--------------
E|--------------------------------------------------------------------------------------------------------------

Stave 7:

G|-----------------------------------------------------0--1--2--------------------------------------------------------------
D|--5-----5--5--0--2--4-----4--4--2--0--------0--2--4--------------2--2-----2--2--0--2--0-----0--0--0--1--2-----2--2--1--0--
A|--------------------------------------0--4--------------------------------------------------------------------------------
E|--------------------------------------------------------------------------------------------------------------------------

Stave 8:

G|--------5--4--------2--------------------------------------------------------------------------------
D|-----5--------5--0-----4--0--5--4--2--0-----2--2-----2--2--0--2--0-----0--0--0--1--2-----2--2--1--0--
A|--3--------------------------------------------------------------------------------------------------
E|-----------------------------------------------------------------------------------------------------

Stave 9:

G|--------5--4--------2-----------------------4--7--12--
D|-----5--------5--0-----4--0--5--4--2--0--5------------
A|--3---------------------------------------------------
E|------------------------------------------------------

Stave 10:

G|----------------------------------------------------------------------------------|--
D|--0--1--2--3--4--5--6--7--8--9--10--11--12--11--10--9--8--7--6--5--4--3--2--1--0--|--
A|----------------------------------------------------------------------------------|--
E|----------------------------------------------------------------------------------|--

http://www.guitartabcreator.com
Guitar Tab Creator is intended to store guitar tab created through the tool. It currently does not support in-line text editing. Any text you place in here will be lost. If you need to comment on your tab, please use the "Tab Notes" section located below.