Skip to main content

Chinna Chinna Asain

0 1 2 3 4 5 6 7 8 9 10 11 12 13 14 15 16 17 18 19 20 21 22 23
E
B
G
D
A
E
0 1 2 3 4 5 6 7 8 9 10 11 12 13 14 15 16 17 18 19 20 21 22 23
(/) Slide Up  (\) Slide Down  (h) Hammer On  (p) Pull Off  (b) Bend (r) Release (v) Vibrato

Stave 1:

E|-------------------------|-----------------|-----------|-----------|-------------------10------|--------------|-----------------------
B|--------10--8--7--8--10--|-----------8--7--|--8--------|-----------|--10--8--7--8--10------10--|--------8--7--|--8--7-----------------
G|-------------------------|-----------------|-----------|-----------|---------------------------|--------------|--------7--------------
D|-------------------------|-----------------|-----------|-----------|---------------------------|--------------|-----------------------
A|-------------------------|-----------------|-----------|-----------|---------------------------|--------------|-----------------------
E|-------------------------|-----------------|-----------|-----------|---------------------------|--------------|-----------------------

Stave 2:

E|--------5--5--5--5--5--5--|--5--5--5--5--5--5--5--5--5--5--5--5--|-----------3--3--3--3--3--3--|--3--3--3--3--3--3--3--3--3--3--3--3--
B|--------------------------|--------------------------------------|-----------------------------|--------------------------------------
G|--------------------------|--------------------------------------|-----------------------------|--------------------------------------
D|--------------------------|--------------------------------------|-----------------------------|--------------------------------------
A|--------------------------|--------------------------------------|-----------------------------|--------------------------------------
E|--------------------------|--------------------------------------|-----------------------------|--------------------------------------

Stave 3:

E|--------2--2--2--2--2--2--|--2--2--2--2--2--2--2--2--2--2--2--2--|--0--0--0--0--0--0--0--0--0--0--0--0--|--0-----2--0--3--|--2--2-----
B|--------------------------|--------------------------------------|--------------------------------------|-----3-----------|-----------
G|--------------------------|--------------------------------------|--------------------------------------|-----------------|-----------
D|--------------------------|--------------------------------------|--------------------------------------|-----------------|-----------
A|--------------------------|--------------------------------------|--------------------------------------|-----------------|-----------
E|--------------------------|--------------------------------------|--------------------------------------|-----------------|-----------

Stave 4:

E|--------0--5--3--2--|--2--2--------|--------------2--0--3--|--2--2--------|--------0--5--3--2--|--2--2-----|-----5--5--7--5--|--7--7--
B|--------------------|--------------|-----------3-----------|--------------|--------------------|-----------|-----------------|--------
G|--------------------|--------------|-----------------------|--------------|--------------------|-----------|-----------------|--------
D|--------------------|--------------|-----------------------|--------------|--------------------|-----------|-----------------|--------
A|--------------------|--------------|-----------------------|--------------|--------------------|-----------|-----------------|--------
E|--------------------|--------------|-----------------------|--------------|--------------------|-----------|-----------------|--------

Stave 5:

E|-----7--7--8--7--|--8--8-----7/8--|--5/7\5-----5--7--5-----|----------------|---------0-----5--3--2--|--2--2-----0--
B|-----------------|----------------|---------------------7--|--8--8-----7/8--|--5/7\5-----------------|--------------
G|-----------------|----------------|------------------------|----------------|------------------------|--------------
D|-----------------|----------------|------------------------|----------------|------------------------|--------------
A|-----------------|----------------|------------------------|----------------|------------------------|--------------
E|-----------------|----------------|------------------------|----------------|------------------------|--------------

Stave 6:

E|-----------2--0--3--|--2--2--------|-----0--5--3--2--|--2--2-----|-----2--0--3--|--2--2--------|--0--5--3--2--|--
B|--3-----3-----------|--------------|-----------------|-----------|--3-----------|--------------|--------------|--
G|--------------------|--------------|-----------------|-----------|--------------|--------------|--------------|--
D|--------------------|--------------|-----------------|-----------|--------------|--------------|--------------|--
A|--------------------|--------------|-----------------|-----------|--------------|--------------|--------------|--
E|--------------------|--------------|-----------------|-----------|--------------|--------------|--------------|--

Stave 7:

E|-----5--5--5--|-------------|--------------------|----------|-----5--5--5--|-------------|--------------------|-------------
B|--------------|--7\5--3-----|--------3--5--7--8--|--5/7--5--|--------------|--7\5--3-----|--------3--5--7--8--|--5/7--5-----
G|--------------|-------------|--------------------|----------|--------------|-------------|--------------------|-------------
D|--------------|-------------|--------------------|----------|--------------|-------------|--------------------|-------------
A|--------------|-------------|--------------------|----------|--------------|-------------|--------------------|-------------
E|--------------|-------------|--------------------|----------|--------------|-------------|--------------------|-------------

Stave 8:

E|--------7--5--|--7--7-----|-----7--9--10--12--|--10--9--10-----9--|--10--------7--5--|--7--7-----|-----7--9--10--12--
B|--------------|-----------|-------------------|-------------------|------------------|-----------|-------------------
G|--7--7--------|-----------|-------------------|-------------------|------7--7--------|-----------|-------------------
D|--------------|-----------|-------------------|-------------------|------------------|-----------|-------------------
A|--------------|-----------|-------------------|-------------------|------------------|-----------|-------------------
E|--------------|-----------|-------------------|-------------------|------------------|-----------|-------------------

Stave 9:

E|--10--9--10-----9--------|--10------10----------|----------------------|---------0--5--3--2--|--2--2-----0--
B|-------------------------|------10------13--12--|--10--12--8-----7--8--|--5/7\5--------------|--------------
G|-------------------------|----------------------|----------------------|---------------------|--------------
D|-------------------------|----------------------|----------------------|---------------------|--------------
A|-------------------------|----------------------|----------------------|---------------------|--------------
E|-------------------------|----------------------|----------------------|---------------------|--------------

Stave 10:

E|-----------2--0--3--|--2--2--------|--------0--5--3--2--|--2--2--------|-----------2--0--3--|--2--2--------
B|--3-----3-----------|--------------|--------------------|--------------|--------3-----------|--------------
G|--------------------|--------------|--------------------|--------------|--------------------|--------------
D|--------------------|--------------|--------------------|--------------|--------------------|--------------
A|--------------------|--------------|--------------------|--------------|--------------------|--------------
E|--------------------|--------------|--------------------|--------------|--------------------|--------------

							https://www.guitartabcreator.com
Chords

Instruments
{"strings":[[["_","_",".",".",".",".",".","|","_","_","_",".",".","|",".","_","_","|","_","_","_","|",".",".",".",".",".",10,".","|","_","_",".",".","|",".",".",".","_","_","_","_"],["_","_",10,8,7,8,10,"|","_","_","_",8,7,"|",8,"_","_","|","_","_","_","|",10,8,7,8,10,".",10,"|","_","_",8,7,"|",8,7,".","_","_","_","_"],["_","_",".",".",".",".",".","|","_","_","_",".",".","|",".","_","_","|","_","_","_","|",".",".",".",".",".",".",".","|","_","_",".",".","|",".",".",7,"_","_","_","_"],["_","_",".",".",".",".",".","|","_","_","_",".",".","|",".","_","_","|","_","_","_","|",".",".",".",".",".",".",".","|","_","_",".",".","|",".",".",".","_","_","_","_"],["_","_",".",".",".",".",".","|","_","_","_",".",".","|",".","_","_","|","_","_","_","|",".",".",".",".",".",".",".","|","_","_",".",".","|",".",".",".","_","_","_","_"],["_","_",".",".",".",".",".","|","_","_","_",".",".","|",".","_","_","|","_","_","_","|",".",".",".",".",".",".",".","|","_","_",".",".","|",".",".",".","_","_","_","_"]],[["_","_",5,5,5,5,5,5,"|",5,5,5,5,5,5,5,5,5,5,5,5,"|","_","_","_",3,3,3,3,3,3,"|",3,3,3,3,3,3,3,3,3,3,3,3],["_","_",".",".",".",".",".",".","|",".",".",".",".",".",".",".",".",".",".",".",".","|","_","_","_",".",".",".",".",".",".","|",".",".",".",".",".",".",".",".",".",".",".","."],["_","_",".",".",".",".",".",".","|",".",".",".",".",".",".",".",".",".",".",".",".","|","_","_","_",".",".",".",".",".",".","|",".",".",".",".",".",".",".",".",".",".",".","."],["_","_",".",".",".",".",".",".","|",".",".",".",".",".",".",".",".",".",".",".",".","|","_","_","_",".",".",".",".",".",".","|",".",".",".",".",".",".",".",".",".",".",".","."],["_","_",".",".",".",".",".",".","|",".",".",".",".",".",".",".",".",".",".",".",".","|","_","_","_",".",".",".",".",".",".","|",".",".",".",".",".",".",".",".",".",".",".","."],["_","_",".",".",".",".",".",".","|",".",".",".",".",".",".",".",".",".",".",".",".","|","_","_","_",".",".",".",".",".",".","|",".",".",".",".",".",".",".",".",".",".",".","."]],[["_","_",2,2,2,2,2,2,"|",2,2,2,2,2,2,2,2,2,2,2,2,"|",0,0,0,0,0,0,0,0,0,0,0,0,"|",0,".",2,0,3,"|",2,2,"_"],["_","_",".",".",".",".",".",".","|",".",".",".",".",".",".",".",".",".",".",".",".","|",".",".",".",".",".",".",".",".",".",".",".",".","|",".",3,".",".",".","|",".",".","_"],["_","_",".",".",".",".",".",".","|",".",".",".",".",".",".",".",".",".",".",".",".","|",".",".",".",".",".",".",".",".",".",".",".",".","|",".",".",".",".",".","|",".",".","_"],["_","_",".",".",".",".",".",".","|",".",".",".",".",".",".",".",".",".",".",".",".","|",".",".",".",".",".",".",".",".",".",".",".",".","|",".",".",".",".",".","|",".",".","_"],["_","_",".",".",".",".",".",".","|",".",".",".",".",".",".",".",".",".",".",".",".","|",".",".",".",".",".",".",".",".",".",".",".",".","|",".",".",".",".",".","|",".",".","_"],["_","_",".",".",".",".",".",".","|",".",".",".",".",".",".",".",".",".",".",".",".","|",".",".",".",".",".",".",".",".",".",".",".",".","|",".",".",".",".",".","|",".",".","_"]],[["_","_",0,5,3,2,"|",2,2,"_","_","|","_","_","_",".",2,0,3,"|",2,2,"_","_","|","_","_",0,5,3,2,"|",2,2,"_","|","_",5,5,7,5,"|",7,7],["_","_",".",".",".",".","|",".",".","_","_","|","_","_","_",3,".",".",".","|",".",".","_","_","|","_","_",".",".",".",".","|",".",".","_","|","_",".",".",".",".","|",".","."],["_","_",".",".",".",".","|",".",".","_","_","|","_","_","_",".",".",".",".","|",".",".","_","_","|","_","_",".",".",".",".","|",".",".","_","|","_",".",".",".",".","|",".","."],["_","_",".",".",".",".","|",".",".","_","_","|","_","_","_",".",".",".",".","|",".",".","_","_","|","_","_",".",".",".",".","|",".",".","_","|","_",".",".",".",".","|",".","."],["_","_",".",".",".",".","|",".",".","_","_","|","_","_","_",".",".",".",".","|",".",".","_","_","|","_","_",".",".",".",".","|",".",".","_","|","_",".",".",".",".","|",".","."],["_","_",".",".",".",".","|",".",".","_","_","|","_","_","_",".",".",".",".","|",".",".","_","_","|","_","_",".",".",".",".","|",".",".","_","|","_",".",".",".",".","|",".","."]],[["_",7,7,8,7,"|",8,8,"_",7,"/",8,"|",5,"/",7,"\\",5,"_",5,7,5,".","|",".",".","_",".",".",".","|",".",".",".",".",".",0,"_",5,3,2,"|",2,2,"_",0],["_",".",".",".",".","|",".",".","_",".",".",".","|",".",".",".",".",".","_",".",".",".",7,"|",8,8,"_",7,"/",8,"|",5,"/",7,"\\",5,".","_",".",".",".","|",".",".","_","."],["_",".",".",".",".","|",".",".","_",".",".",".","|",".",".",".",".",".","_",".",".",".",".","|",".",".","_",".",".",".","|",".",".",".",".",".",".","_",".",".",".","|",".",".","_","."],["_",".",".",".",".","|",".",".","_",".",".",".","|",".",".",".",".",".","_",".",".",".",".","|",".",".","_",".",".",".","|",".",".",".",".",".",".","_",".",".",".","|",".",".","_","."],["_",".",".",".",".","|",".",".","_",".",".",".","|",".",".",".",".",".","_",".",".",".",".","|",".",".","_",".",".",".","|",".",".",".",".",".",".","_",".",".",".","|",".",".","_","."],["_",".",".",".",".","|",".",".","_",".",".",".","|",".",".",".",".",".","_",".",".",".",".","|",".",".","_",".",".",".","|",".",".",".",".",".",".","_",".",".",".","|",".",".","_","."]],[[".","_",".",2,0,3,"|",2,2,"_","_","|","_",0,5,3,2,"|",2,2,"_","|",".",2,0,3,"|",2,2,"_","_","|",0,5,3,2,"|"],[3,"_",3,".",".",".","|",".",".","_","_","|","_",".",".",".",".","|",".",".","_","|",3,".",".",".","|",".",".","_","_","|",".",".",".",".","|"],[".","_",".",".",".",".","|",".",".","_","_","|","_",".",".",".",".","|",".",".","_","|",".",".",".",".","|",".",".","_","_","|",".",".",".",".","|"],[".","_",".",".",".",".","|",".",".","_","_","|","_",".",".",".",".","|",".",".","_","|",".",".",".",".","|",".",".","_","_","|",".",".",".",".","|"],[".","_",".",".",".",".","|",".",".","_","_","|","_",".",".",".",".","|",".",".","_","|",".",".",".",".","|",".",".","_","_","|",".",".",".",".","|"],[".","_",".",".",".",".","|",".",".","_","_","|","_",".",".",".",".","|",".",".","_","|",".",".",".",".","|",".",".","_","_","|",".",".",".",".","|"]],[["_",5,5,5,"|",".",".",".",".","_","|","_","_",".",".",".",".","|",".",".",".",".","|","_",5,5,5,"|",".",".",".",".","_","|","_","_",".",".",".",".","|",".",".",".",".","_"],["_",".",".",".","|",7,"\\",5,3,"_","|","_","_",3,5,7,8,"|",5,"/",7,5,"|","_",".",".",".","|",7,"\\",5,3,"_","|","_","_",3,5,7,8,"|",5,"/",7,5,"_"],["_",".",".",".","|",".",".",".",".","_","|","_","_",".",".",".",".","|",".",".",".",".","|","_",".",".",".","|",".",".",".",".","_","|","_","_",".",".",".",".","|",".",".",".",".","_"],["_",".",".",".","|",".",".",".",".","_","|","_","_",".",".",".",".","|",".",".",".",".","|","_",".",".",".","|",".",".",".",".","_","|","_","_",".",".",".",".","|",".",".",".",".","_"],["_",".",".",".","|",".",".",".",".","_","|","_","_",".",".",".",".","|",".",".",".",".","|","_",".",".",".","|",".",".",".",".","_","|","_","_",".",".",".",".","|",".",".",".",".","_"],["_",".",".",".","|",".",".",".",".","_","|","_","_",".",".",".",".","|",".",".",".",".","|","_",".",".",".","|",".",".",".",".","_","|","_","_",".",".",".",".","|",".",".",".",".","_"]],[[".",".",7,5,"|",7,7,"_","|","_",7,9,10,12,"|",10,9,10,"_",9,"|",10,".",".",7,5,"|",7,7,"_","|","_",7,9,10,12],[".",".",".",".","|",".",".","_","|","_",".",".",".",".","|",".",".",".","_",".","|",".",".",".",".",".","|",".",".","_","|","_",".",".",".","."],[7,7,".",".","|",".",".","_","|","_",".",".",".",".","|",".",".",".","_",".","|",".",7,7,".",".","|",".",".","_","|","_",".",".",".","."],[".",".",".",".","|",".",".","_","|","_",".",".",".",".","|",".",".",".","_",".","|",".",".",".",".",".","|",".",".","_","|","_",".",".",".","."],[".",".",".",".","|",".",".","_","|","_",".",".",".",".","|",".",".",".","_",".","|",".",".",".",".",".","|",".",".","_","|","_",".",".",".","."],[".",".",".",".","|",".",".","_","|","_",".",".",".",".","|",".",".",".","_",".","|",".",".",".",".",".","|",".",".","_","|","_",".",".",".","."]],[[10,9,10,"_",9,"_","_","|",10,".",10,".",".","|",".",".",".","_",".",".","|",".",".",".",".",".",0,5,3,2,"|",2,2,"_",0],[".",".",".","_",".","_","_","|",".",10,".",13,12,"|",10,12,8,"_",7,8,"|",5,"/",7,"\\",5,".",".",".",".","|",".",".","_","."],[".",".",".","_",".","_","_","|",".",".",".",".",".","|",".",".",".","_",".",".","|",".",".",".",".",".",".",".",".",".","|",".",".","_","."],[".",".",".","_",".","_","_","|",".",".",".",".",".","|",".",".",".","_",".",".","|",".",".",".",".",".",".",".",".",".","|",".",".","_","."],[".",".",".","_",".","_","_","|",".",".",".",".",".","|",".",".",".","_",".",".","|",".",".",".",".",".",".",".",".",".","|",".",".","_","."],[".",".",".","_",".","_","_","|",".",".",".",".",".","|",".",".",".","_",".",".","|",".",".",".",".",".",".",".",".",".","|",".",".","_","."]],[[".","_",".",2,0,3,"|",2,2,"_","_","|","_","_",0,5,3,2,"|",2,2,"_","_","|","_","_",".",2,0,3,"|",2,2,"_","_"],[3,"_",3,".",".",".","|",".",".","_","_","|","_","_",".",".",".",".","|",".",".","_","_","|","_","_",3,".",".",".","|",".",".","_","_"],[".","_",".",".",".",".","|",".",".","_","_","|","_","_",".",".",".",".","|",".",".","_","_","|","_","_",".",".",".",".","|",".",".","_","_"],[".","_",".",".",".",".","|",".",".","_","_","|","_","_",".",".",".",".","|",".",".","_","_","|","_","_",".",".",".",".","|",".",".","_","_"],[".","_",".",".",".",".","|",".",".","_","_","|","_","_",".",".",".",".","|",".",".","_","_","|","_","_",".",".",".",".","|",".",".","_","_"],[".","_",".",".",".",".","|",".",".","_","_","|","_","_",".",".",".",".","|",".",".","_","_","|","_","_",".",".",".",".","|",".",".","_","_"]]],"numberofstrings":6,"notes":["E","B","G","D","A","E","B"],"capo":0,"stringnotes":["E4","B3","G3","D3","A2","E2"],"comments":["Stave 1:","Stave 2:","Stave 3:","Stave 4:","Stave 5:","Stave 6:","Stave 7:","Stave 8:","Stave 9:","Stave 10:"],"timing":[["Q","Q","Q","Q","Q","Q","Q",null,"Q","Q","Q","Q","Q",null,"Q","Q","Q",null,"Q","Q","Q",null,"Q","Q","Q","Q","Q","Q","Q",null,"Q","Q","Q","Q",null,"Q","Q","Q","Q","Q","Q","Q"],["Q","Q","Q","Q","Q","Q","Q","Q",null,"Q","Q","Q","Q","Q","Q","Q","Q","Q","Q","Q","Q",null,"Q","Q","Q","Q","Q","Q","Q","Q","Q",null,"Q","Q","Q","Q","Q","Q","Q","Q","Q","Q","Q","Q"],["Q","Q","Q","Q","Q","Q","Q","Q",null,"Q","Q","Q","Q","Q","Q","Q","Q","Q","Q","Q","Q",null,"Q","Q","Q","Q","Q","Q","Q","Q","Q","Q","Q","Q",null,"Q","Q","Q","Q","Q",null,"Q","Q","Q"],["Q","Q","Q","Q","Q","Q",null,"Q","Q","Q","Q",null,"Q","Q","Q","Q","Q","Q","Q",null,"Q","Q","Q","Q",null,"Q","Q","Q","Q","Q","Q",null,"Q","Q","Q",null,"Q","Q","Q","Q","Q",null,"Q","Q"],["Q","Q","Q","Q","Q",null,"Q","Q","Q","Q",null,"Q",null,"Q",null,"Q",null,"Q","Q","Q","Q","Q","Q",null,"Q","Q","Q","Q",null,"Q",null,"Q",null,"Q",null,"Q","Q","Q","Q","Q","Q",null,"Q","Q","Q","Q"],["Q","Q","Q","Q","Q","Q",null,"Q","Q","Q","Q",null,"Q","Q","Q","Q","Q",null,"Q","Q","Q",null,"Q","Q","Q","Q",null,"Q","Q","Q","Q",null,"Q","Q","Q","Q",null,"Q"],["Q","Q","Q","Q",null,"Q",null,"Q","Q","Q",null,"Q","Q","Q","Q","Q","Q",null,"Q",null,"Q","Q",null,"Q","Q","Q","Q",null,"Q",null,"Q","Q","Q",null,"Q","Q","Q","Q","Q","Q",null,"Q",null,"Q","Q","Q"],["Q","Q","Q","Q",null,"Q","Q","Q",null,"Q","Q","Q","Q","Q",null,"Q","Q","Q","Q","Q",null,"Q","Q","Q","Q","Q",null,"Q","Q","Q",null,"Q","Q","Q","Q","Q"],["Q","Q","Q","Q","Q","Q","Q",null,"Q","Q","Q","Q","Q",null,"Q","Q","Q","Q","Q","Q",null,"Q",null,"Q",null,"Q","Q","Q","Q","Q",null,"Q","Q","Q","Q"],["Q","Q","Q","Q","Q","Q",null,"Q","Q","Q","Q",null,"Q","Q","Q","Q","Q","Q",null,"Q","Q","Q","Q",null,"Q","Q","Q","Q","Q","Q",null,"Q","Q","Q","Q"]],"timingvisible":false,"tabcounter":35,"stave":9,"totalstaves":10,"instrument":"6guitar","selectedtuning":"6_standard","version":"13"}
Submitted by Skajana on