Sound will begin in 5 seconds

Old Devil Moon

01234567891011121314151617181920212223
E
B
G
D
A
E
B
0 1 2 3 4 5 6 7 8 9 10 11 12 13 14 15 16 17 18 19 20 21 22 23
Song Science #1: How Pros Use 6 Chords to Write Hit Songs
(/) Slide Up  (\) Slide Down  (h) Hammer On  (p) Pull Off  (b) Bend (r) Release (v) Vibrato

Stave 1:

E|------------------------------------------------------------------------------------------------------
B|------------------------------------------------------------------------------------------------------
G|---------------------------------------------------------------------------------------------------7--
D|------------------------------------------------------------------------------------8--8--8--8--8-----
A|--8----------------------------10--8-----------10--10--10--10--10--13--12-----------------------------
E|-----------11--11--11--11--11-------------------------------------------------------------------------

Stave 2:

E|--------------------------------------------------------------------------------------------------
B|--------------------------------------------------------------------------------------------------
G|--5-----5--5--5--3--2-----------------------------------------------------------------------------
D|-----------------------3-----7--8--10-----8--7--------7--8--11-----9--8--------7------------------
A|------------------------------------------------8------------------------9--------10--8-----------
E|--------------------------------------------------------------------------------------------------

Stave 3:

E|--------------------------------------------------------------------------------------------------------
B|--------------------------------------------------------------------------------------------------------
G|--------------------------------------------------------------------------------------------------------
D|--------------------------5--------------7------------------7---------------9---------------10--12------
A|--6-----6--8-----6-----6--------6-----6-----------8------8--------8------8--------8------8----------11--
E|-----8--------------8--------------8-----------------10--------------10--------------10-----------------

Stave 4:

E|----------------------------------------------------------------------------------------------
B|----------------------------------------------------------------------------------------------
G|----------------------------------------------------------------------------------------------
D|----------------------------------------------------------------------------------------------
A|--8---------8-------------------------------10--8-----------10--10--10--10--10--13--12--------
E|-----10--8--------------11--11--11--11--11----------------------------------------------------

Stave 5:

E|--------------------------------------------------------------------------------------------------------
B|--------------------------------------------------------------------------------------------------------
G|-----------------7--------------------------------------------------------------------------------------
D|--8--8--8--8--8-----10--------10--10--10-----8--7--------7--8--10--8--7--------7--8--11--9--8-----------
A|---------------------------------------------------8---------------------8---------------------9--------
E|--------------------------------------------------------------------------------------------------------

Stave 6:

E|--------------------------------------------------------------------------------------------------------
B|--------------------------------------------------------------------------------------------------------
G|---------------------------------------------------------------------------8--8--8----------------------
D|--7---------------------------------------------------------------------------------10-----8--10--8--7--
A|-----10--8-----------------6-----6--8-----8-----------6-----6--8----------------------------------------
E|------------------------------8--------------------------8----------------------------------------------

Stave 7:

E|-----------------------
B|-----------------------
G|-----------------------
D|-----------------------
A|--8--6--7--8-----------
E|-----------------------

http://www.guitartabcreator.com
Guitar Tab Creator is intended to store guitar tab created through the tool. It currently does not support in-line text editing. Any text you place in here will be lost. If you need to comment on your tab, please use the "Tab Notes" section located below.