Sound will begin in 5 seconds

Autumn Leaves

01234567891011121314151617181920212223
E
B
G
D
A
E
B
0 1 2 3 4 5 6 7 8 9 10 11 12 13 14 15 16 17 18 19 20 21 22 23
Song Science #1: How Pros Use 6 Chords to Write Hit Songs
(/) Slide Up  (\) Slide Down  (h) Hammer On  (p) Pull Off  (b) Bend (r) Release (v) Vibrato

Stave 1:

G|-----------0-----------5-----------------------4--------------------------------4-----------4-----
D|--------2--------4--7--------------4-----2--5--------------2-----------7-----5-----5-----5-----5--
A|-----3--------5--------------2--5-----3--------------0--4--------6--9-----7-----------7-----------
E|--5-----------------------3-----------------------2-----------7-----------------------------------

Stave 2:

G|-----------0-----------5-----------------------4--------------------------------4-----------4-----
D|--------2--------4--7--------------4-----2--5--------------2-----------7-----5-----5-----5-----5--
A|-----3--------5--------------2--5-----3--------------0--4--------6--9-----7-----------7-----------
E|--5-----------------------3-----------------------2-----------7-----------------------------------

Stave 3:

G|---------------------------------4-----------4--------------0-----------5--------------------------
D|-----------2--------7--10-----5-----5-----5-----5--------2--------4--7--------------4-----------4--
A|-----0--4--------9---------7-----------7--------------3--------5--------------2--5--------2--5-----
E|--2-----------7------------------------------------5-----------------------3-----------3-----------

Stave 4:

G|------------------------------------------------------------4---------------------4-----------4-----
D|-----------2--------7--10-----5-----5-----3-----3-----2--5-----------7--10-----5-----5-----5-----5--
A|-----0--4--------9---------7-----6-----5-----4-----3--------------9---------7-----------7-----------
E|--2-----------7------------------------------------------------7------------------------------------

http://www.guitartabcreator.com
Guitar Tab Creator is intended to store guitar tab created through the tool. It currently does not support in-line text editing. Any text you place in here will be lost. If you need to comment on your tab, please use the "Tab Notes" section located below.