Sound will begin in 5 seconds

The American Patrol (Arranged by Paul Lavender)

01234567891011121314151617181920212223
E
B
G
D
A
E
B
0 1 2 3 4 5 6 7 8 9 10 11 12 13 14 15 16 17 18 19 20 21 22 23
Song Science #1: How Pros Use 6 Chords to Write Hit Songs
(/) Slide Up  (\) Slide Down  (h) Hammer On  (p) Pull Off  (b) Bend (r) Release (v) Vibrato

Stave 1:

E|--------------------------------------------------------------------------------------------------
B|--------------------------------------------------------------------------------------------------
G|-----------------------------------------------------------3-----------------------------------3--
D|-----------------------------------------------------2--5--------------------------3-----2--5-----
A|-----0--3--0-----0--3--0-----0--3--0-----0--3--0--3--------------0--3--0-----2--5-----3-----------
E|--1-----------1-----------1-----------1-----------------------1-----------3-----------------------

Stave 2:

E|---------------------------------------------------------------------------------------------
B|---------------------------------------------------------------------------------------------
G|---------------------------------------------------------------------------------------------
D|---------------------------------------------------------------------------------------8-----
A|-----0--3--0-----0--3--0-----0--3--0-----0--3--0-----8--10--8-----10-----10-----7--10--------
E|--1-----------1-----------1-----------1-----------6------------8------8------8------------1--

Stave 3:

E|--------------------------------------------------------------------------------------------------
B|--------------------------------------------------------------------------------------------------
G|-----------3-----------------------------------------------3--------------------------------------
D|-----2--5--------2--5--------------0-----------0-----2--5--------2--5--------------0-----------0--
A|--3-----------3--------------0--3--------0--3-----3-----------3--------------0--3--------0--3-----
E|-----------------------0--1-----------1--------------------------------0--1-----------1-----------

Stave 4:

E|-----------------------------------------------------------------------------------------------
B|-----------------------------------------------------------------------------------------------
G|-----------------------------------------------------------------------------------------------
D|--------------------------------------------------------------------------------2--5-----------
A|--------------8-----------------------5-----------------------8-----------3--5--------8-----8--
E|--6-----------------------5-----------------------6--------------------------------------8-----

Stave 5:

E|--------------------------------------------------------------------------------------
B|--------------------------------------------------------------------------------------
G|--------------------------------------------------------------------------------------
D|--------------------------------------------------------------------------------------
A|-----5-----5-----------------8-----8-----------------0-----0-----------------3-----3--
E|--5-----5-----------------8-----8-----------------0-----0-----------------3-----3-----

Stave 6:

E|--------------------------------------------------------------------------------------------------
B|--------------------------------------------------------------------------------------------------
G|-----------3-----------------------------------------------3--------------------------------------
D|-----2--5--------2--5--------------0-----------0-----2--5--------2--5--------------0-----------1--
A|--3-----------3--------------0--3--------0--3-----3-----------3--------------1--3--------0--3-----
E|-----------------------0--1-----------1--------------------------------0--1-----------1-----------

Stave 7:

E|--------------------------------------------------------------------------------------------------------
B|--------------------------------------------------------------------------------------------------------
G|-----------------------------------3--------------------------------------------------------------5--7--
D|-----------5-----------0-----2--5--------------0-----------5-----------0--------------------------------
A|-----5--8--------0--3-----3--------------0--3--------5--8--------0--3-----3--4--5--6--7--8--------------
E|--6-----------1-----------------------1-----------6-----------1-----------------------------------------

Stave 8:

E|------------------------------------------------------------------------------------------------------
B|------------------------------------------------------------------------------------------------------
G|------------8------------8------------------------------------8------------8--------------------------
D|-----7--10--------7--10--------------5-----------5-----7--10--------7--10-----------3-----------3-----
A|--8------------8---------------5--8--------5--8-----8------------8---------------5-----5-----5-----5--
E|----------------------------6-----------6-------------------------------------6-----------6-----------

Stave 9:

E|--------------------------------------------------------------------------------------
B|--------------------------------------------------------------------------------------
G|-----------------------------------------------5-----------------8--------------------
D|-----------5-----------5-----------5--------5-----------------------------------------
A|-----5--8--------5--8--------5--8--------6--------3--5--6--7--8-----8-----------------
E|--6-----------6-----------6--------------------------------------------8--6--6--6--6--

Stave 10:

E|--------------------------------------------------------------------------------------------------
B|--------------------------------------------------------------------------------------------------
G|--------------------------------------------------------------------------------------------------
D|--------------------------------------------------------------------------------------------------
A|-----0--3--0-----0--3--0-----0--3--0-----0--3--0-----0--3--0-----0--3--0-----0--3--0-----0--3--0--
E|--1-----------1-----------1-----------1-----------1-----------1-----------1-----------1-----------

Stave 11:

E|--------------------------------------------------------------------------------------------------
B|--------------------------------------------------------------------------------------------------
G|--------------------------------------------------------------------------------------------------
D|-----0--3--0-----0--3--0-----------------------------0--3--0-----0--3--0--------------------------
A|--1-----------1--------------0--3--0-----0--3--0--1-----------1--------------0--3--0-----0--3--0--
E|--------------------------1-----------1-----------------------------------1-----------1-----------

Stave 12:

E|--------------------------------------------------------------------------------------------------
B|--------------------------------------------------------------------------------------------------
G|--------------------------------------------------------------------------------------------------
D|-----0--3--0-----0--3--0-----------------------------0--3--0-----0--3--0-----------0--3--0--------
A|--1-----------1--------------0--3--0-----0--3--0--1-----------1--------------0--3-----------3--0--
E|--------------------------1-----------1-----------------------------------1-----------------------

Stave 13:

E|-----------------------
B|-----------------------
G|-----------------------
D|-----------0--3--0-----
A|-----0--3--------------
E|--1-----------------1--

http://www.guitartabcreator.com
Guitar Tab Creator is intended to store guitar tab created through the tool. It currently does not support in-line text editing. Any text you place in here will be lost. If you need to comment on your tab, please use the "Tab Notes" section located below.