Sound will begin in 5 seconds

That Would Be Something

01234567891011121314151617181920212223
E
B
G
D
A
E
B
0 1 2 3 4 5 6 7 8 9 10 11 12 13 14 15 16 17 18 19 20 21 22 23
Song Science #1: How Pros Use 6 Chords to Write Hit Songs
(/) Slide Up  (\) Slide Down  (h) Hammer On  (p) Pull Off  (b) Bend (r) Release (v) Vibrato

Stave 1:

E|--------------------|------------------|----------------------|------------------------|-
B|--------------------|------------------|----------------------|------------------------|-
G|--------------------|------------------|----------------------|------------------------|-
D|-7/9----7-6-7-6-----|-7/9-9-7-6-7-6----|-------2-2-4-2-----2v-|-------2-2-4-2-----2v-v-|-
A|----------------7---|---------------7v-|-0-3h4----------------|-0-3h4------------------|-
E|------------------7-|------------------|---------------3h4----|---------------3h4------|-

Stave 2:

E|---------------------|-----------------|----------------------|------------------------|-
B|---------------------|-----------------|-------5-5-7-5-----5v-|-------5-5-7-5-----5v-v-|-
G|-2/4v----2-1-2-1-----|-2/4-4-2-1-2-1---|---6h7----------------|---6h7------------------|-
D|-----------------2---|---------------2-|---------------5h6----|-7-------------5h6------|-
A|-------------------2-|-----------------|-0--------------------|------------------------|-
E|---------------------|-----------------|----------------------|------------------------|-

Stave 3:

E|-
B|-
G|-
D|-
A|-
E|-

http://www.guitartabcreator.com
Guitar Tab Creator is intended to store guitar tab created through the tool. It currently does not support in-line text editing. Any text you place in here will be lost. If you need to comment on your tab, please use the "Tab Notes" section located below.