Sound will begin in 5 seconds

TWLWMYD 4-20-1993 2nd solo (1 octave lower)

Chords
01234567891011121314151617181920212223
E
B
G
D
A
E
B
0 1 2 3 4 5 6 7 8 9 10 11 12 13 14 15 16 17 18 19 20 21 22 23
Song Science #1: How Pros Use 6 Chords to Write Hit Songs
(/) Slide Up  (\) Slide Down  (h) Hammer On  (p) Pull Off  (b) Bend (r) Release (v) Vibrato

Stave 1:

E|-15-11b12v---------------------------13b|-15r13-11----11v-12-11b12-------11-13b15-
B|------------------11-11----11v-12-13----|----------13-----------------13----------
G|--------------12v-------12--------------|-----------------------------------------
D|----------------------------------------|-----------------------------------------
A|----------------------------------------|-----------------------------------------
E|----------------------------------------|-----------------------------------------

Stave 2:

E|-15r13-11----13v-11--------------|--------------------11b12v-11b12-----------
B|----------13--------13-----------|-13----11v-------11--------------13v-12-11-
G|-----------------------10-11h12v-|----12-----11h12---------------------------
D|---------------------------------|-------------------------------------------
A|---------------------------------|-------------------------------------------
E|---------------------------------|-------------------------------------------

Stave 3:

E|------8----11p10-8------8-12/15-14-13-|-11v----------11v-12-13v----r13-11v----11h12-
B|-9h10---10---------9h10---------------|-----12h13-13-----------------------13-------
G|--------------------------------------|---------------------------------------------
D|--------------------------------------|---------------------------------------------
A|--------------------------------------|---------------------------------------------
E|--------------------------------------|---------------------------------------------

Stave 4:

E|----------------------------------------8v-|----8-----------------------------
B|-13v-13p12p11----13-12b13-------------8----|-10---8---------------------------
G|--------------12----------------10b12------|--------10p8-10b12v----10-10p8----
D|-------------------------------------------|-------------------------------10-
A|-------------------------------------------|----------------------------------
E|-------------------------------------------|----------------------------------

Stave 5:

E|---------------------------------|---------------------------------------------------
B|-------------8\7-----------------|-------------------------------------------------8-
G|-------------9-8v-v-v------------|-----------------------------12-11-10v-------8h9---
D|----8h9----9-------------7/10-12-|-13v----10-12-13p12p10----10--------------10-------
A|--------10-----------------------|-----12----------------12--------------------------
E|---------------------------------|---------------------------------------------------

Stave 6:

E|-8v-----8v-----------------------|---------------------------------------------------
B|----8-8----8----8----------------|---------------------------------------------------
G|-------------10---8b9----------9-|-------------8-10v-10b12v----10-8-10p8-------------
D|----------------------10p8-10v---|-8h10v----10---------------------------10v-v-v-v-v-
A|---------------------------------|---------------------------------------------------
E|---------------------------------|---------------------------------------------------

http://www.guitartabcreator.com
Guitar Tab Creator is intended to store guitar tab created through the tool. It currently does not support in-line text editing. Any text you place in here will be lost. If you need to comment on your tab, please use the "Tab Notes" section located below.