Sound will begin in 5 seconds

So Many Roads (1/2 step down)

01234567891011121314151617181920212223
E
B
G
D
A
E
B
0 1 2 3 4 5 6 7 8 9 10 11 12 13 14 15 16 17 18 19 20 21 22 23
Song Science #1: How Pros Use 6 Chords to Write Hit Songs
(/) Slide Up  (\) Slide Down  (h) Hammer On  (p) Pull Off  (b) Bend (r) Release (v) Vibrato

Stave 1:

E|------10-10v-12-10-9v-12-12-|-9---------------|-10-10v-9-10-11-12v-9----------|----------------------12v-|-
B|----------------------------|------12-10p9-9v-|----------------------12-12b14-|-r12----------------------|-
G|-9/11-----------------------|-----------------|-------------------------------|-----11b13r11-9-11/13-----|-
D|----------------------------|-----------------|-------------------------------|--------------------------|-
A|----------------------------|-----------------|-------------------------------|--------------------------|-
E|----------------------------|-----------------|-------------------------------|--------------------------|-

Stave 2:

E|-9h10-10v-9-10-11-12v-9-9-|-------------------------|----------------|------9---------------------------|-
B|--------------------------|-------12----------------|-----------8/9v-|-12-9---12-9----------------------|-
G|--------------------------|-11/13----13\11-9--------|------9-11------|-------------11-11b13-11b13r11-9v-|-
D|--------------------------|------------------11-11v-|-9h11-----------|----------------------------------|-
A|--------------------------|-------------------------|----------------|----------------------------------|-
E|--------------------------|-------------------------|----------------|----------------------------------|-

Stave 3:

E|-12v-10p9-10p9----9v---------------|------------------------|-
B|---------------12----12-10-12-10p9-|-10p9---10p9h10---------|-
G|-----------------------------------|------9---------9-------|-
D|-----------------------------------|------------------11v-v-|-
A|-----------------------------------|------------------------|-
E|-----------------------------------|------------------------|-

Stave 4:

E|-10-9-10v-11-12-15v--------------|-14v-v----10v-v-------|-
B|-----------------------------13v-|----------------------|-
G|--------------------14b16r14-----|----------------------|-
D|---------------------------------|----------------------|-
A|---------------------------------|----------------------|-
E|---------------------------------|----------------------|-

Stave 5:

E|-10-10v-9-10-11-12v----9-9-|-----------------------------|-------12----------------------------|-
B|---------------------------|-12b14-12v-------------------|-------------------------------------|-
G|---------------------------|-----------11b13r11-9------9-|-11/13----13\11-9--------------------|-
D|---------------------------|----------------------9h11---|------------------11-9v--------------|-
A|---------------------------|-----------------------------|------------------------10/11-11-9\7-|-
E|---------------------------|-----------------------------|-------------------------------------|-

http://www.guitartabcreator.com
Guitar Tab Creator is intended to store guitar tab created through the tool. It currently does not support in-line text editing. Any text you place in here will be lost. If you need to comment on your tab, please use the "Tab Notes" section located below.