Sound will begin in 5 seconds

Simple Twist of Fate

01234567891011121314151617181920212223
E
B
G
D
A
E
B
0 1 2 3 4 5 6 7 8 9 10 11 12 13 14 15 16 17 18 19 20 21 22 23
Song Science #1: How Pros Use 6 Chords to Write Hit Songs
(/) Slide Up  (\) Slide Down  (h) Hammer On  (p) Pull Off  (b) Bend (r) Release (v) Vibrato

Stave 1:

E|-----------------|---------------------------------------------------------------|-
B|-----------------|---------------------10/12-10----10----10-10----------------10-|-
G|-----------------|-------9-11-12-11-12----------------11-------11p10-11-10-11----|-
D|--------7/9----9-|-11-12---------------------------------------------------------|-
A|-7-9-10-----12---|---------------------------------------------------------------|-
E|-----------------|---------------------------------------------------------------|-

Stave 2:

E|-9-10----9-10p9\8----14-------|-12-------------------------------------|-------------------|-
B|------------------10----13----|----13----------------------------------|----12h13-10-13-12-|-
G|---------------------------14-|-------14-13p12----10-11----------------|-------------------|-
D|------------------------------|----------------12-------12-11-10-12/14-|-12----------------|-
A|------------------------------|----------------------------------------|-------------------|-
E|------------------------------|----------------------------------------|-------------------|-

Stave 3:

E|-9b10------------------------------------|-----------------------------9-10-9-------------9-10-|-
B|---------11----10-11----10---------------|-----------------10-11-12-13--------13-11-12-13------|-
G|---------------------12----10-12-9-10----|-9-------9-10-12-------------------------------------|-
D|--------------------------------------12-|---11-12---------------------------------------------|-
A|-----------------------------------------|-----------------------------------------------------|-
E|-----------------------------------------|-----------------------------------------------------|-

Stave 4:

E|----10-9----9-|----15-14-12-10----|------------|------------------|-------|---------|-
B|-10------12---|-12-------------12-|-10---------|------------------|-------|---------|-
G|--------------|-------------------|----11-9/11-|-12-11-9-------11-|-9-7-7-|-----6h7-|-
D|--------------|-------------------|------------|------------12----|-------|-7-9-----|-
A|--------------|-------------------|------------|------------------|-------|---------|-
E|--------------|-------------------|------------|------------------|-------|---------|-

http://www.guitartabcreator.com
Guitar Tab Creator is intended to store guitar tab created through the tool. It currently does not support in-line text editing. Any text you place in here will be lost. If you need to comment on your tab, please use the "Tab Notes" section located below.