Sound will begin in 5 seconds

Shady grove

Chords
01234567891011121314151617181920212223
E
B
G
D
A
E
B
0 1 2 3 4 5 6 7 8 9 10 11 12 13 14 15 16 17 18 19 20 21 22 23
Song Science #1: How Pros Use 6 Chords to Write Hit Songs
(/) Slide Up  (\) Slide Down  (h) Hammer On  (p) Pull Off  (b) Bend (r) Release (v) Vibrato

Stave 1:

E|-----------------------------------------------------------------|--------------------------------0----------------------------1--1-----
B|----------------------------------------------------------1------|--1-----1-----------------------1----------------------------3--3-----
G|-------------------------------------------------0--2--------2v--|-----------2-----0--2--0--------0----------0-----2--0--------2--2-----
D|-------0--------0--2--0-----------0-----0--2--3------------------|--------------------------2-----2-----0h2--------------2--0--------0--
A|--3/5-----5--------------2--3------------------------------------|-----------------------------3----------------------------------------
E|-----------------------------------------------------------------|----------------------------------------------------------------------

Stave 2:

E|----------|-----------------------------------------------------|----------------------------------------------------------1--1-----------
B|----------|----------------------------------------------3------|--1-------------------------------------------------------3--3--------3--
G|----------|--0--2--0--------------------------0--0h2--------2v--|--------2-----0--2--0-----0-------------0-----2--0--------2--2-----------
D|-------0--|-----------2--------0-----0--2--3--------------------|-----------------------2-----2-----0h2--------------2--0--------0--0-----
A|--3/5-----|--------------3--------------------------------------|--------------------------------3----------------------------------------
E|----------|-----------------------------------------------------|-------------------------------------------------------------------------

Stave 3:

E|-----------------|------------------------------------------------------------|--------------------------------------------------------------------------
B|-----------------|------------------------------------------------------------|--1-----1-----------------------------------------------------------------
G|-----------------|--------------------------------------0--2-----2--2-----2v--|-----2-----2--0--2--0--2--0-----0-----------------------------------------
D|-----0--------0--|--0--2--0-----------0--0--2--0--2--3------------------------|-----------------------------2-----2--0-----0--2--0-----0--2--------0-----
A|-----------------|-----------2--3---------------------------------------------|-----------------------------------------3-----------3-----------3--------
E|-----------------|------------------------------------------------------------|--------------------------------------------------------------------------

Stave 4:

E|-------------------------------------------------------------------------------|--
B|--------1-----1--3p1-----1-----------------------------------------------------|--
G|--2--------2----------0-----2--0---------------------------------0h2h2v--v--v--|--
D|----------------------------------2--2p0-----0--2--0-----0h2-------------------|--
A|------------------------------------------3-----------3------------------------|--
E|-------------------------------------------------------------------------------|--

Stave 5:

E|-----------------------------------------------------------------------1--1------
B|--1-----1--3--1-----------------------------------------------------3--3--3--3v--
G|-----2-----------0--2--0-----0-----------------------------------------2--2------
D|--------------------------2-----2--------0-----2--3--2--0-----0--------0--0------
A|-----------------------------------3--------3--------------3---------------------
E|---------------------------------------------------------------------------------

Stave 6:

E|-----------------------------------------------------------------------
B|-----------------5--6--5-----------8--6--5-----5--6p5--5--7--8--8/10v--
G|--7--5--7--7--------------7--5-----------------------------------------
D|-----------------------------------------------------------------------
A|-----------------------------------------------------------------------
E|-----------------------------------------------------------------------

Stave 7:

E|--8------8---------8---------------------------------------------------------------
B|-----10-----10--------10p8--6--8p6--5--5h6p5-----5--------------5------------------
G|----------------------------------------------7-----7--5-----5-----7-----7v--v--v--
D|----------------------------------------------------------7------------------------
A|-----------------------------------------------------------------------------------
E|-----------------------------------------------------------------------------------

Stave 8:

E|--------------------------------------------------------------------------------
B|-----------------------------------------------------------5--6--6--6/8--8/10v--
G|--9--10--9--7----------------9--7-----------------7--6--7-----------------------
D|---------------10--7--10--7--------10--10v--------------------------------------
A|--------------------------------------------------------------------------------
E|--------------------------------------------------------------------------------

Stave 9:

E|--8------8--10p8------8--------------------------------------------------------------------------
B|-----10-----------10-----10p8-----8p7p6--5-----5-----8--6--5-----5-------------------------------
G|--------------------------------------------7-----------------7-----6--7v--v--v--v---------------
D|------------------------------------------------------------------------------------0v--v--v--v--
A|-------------------------------------------------------------------------------------------------
E|-------------------------------------------------------------------------------------------------

Stave 10:

E|---------------------------------------0---------------------------------------------
B|------v--v-----------------------------1---------------------------------------------
G|---------------------------------------0--------------------------0--2--0--2-----2v--
D|--0--0------0-----0-----0--2--0--------2-----0--0--2--0--2--3--0---------------------
A|---------------------------------2--3--3---------------------------------------------
E|-------------------------------------------------------------------------------------

Stave 11:

E|-------------------------------------0--------------------------------1-----1--
B|--3p1-----1--------------------------1--------------------------------3-----3--
G|-------------2--0-----0--2--0--------0--------------0--2--0-----------2-----2--
D|-------------------2-----------2-----2--------0--2-----------2--0--------0-----
A|----------------------------------3--3-----3-----------------------------------
E|-------------------------------------------------------------------------------

Stave 12:

E|-----1--------1-----------------0-----------------------------------------1--1--
B|--------3-----3-----------------1-----------------------------------------3--3--
G|--------------2-----------------0-----------------------------0--2--0--2--2--2--
D|--0--------0-----0--2-----------2-----0--0-----0-----0--2--3--------------------
A|-----------------------0--1--3--3-----------0-----------------------------------
E|--------------------------------------------------------------------------------

Stave 13:

E|----------------3/5--------------------------------------------------1--1---------------
B|---------------------8--6--------------------------------------------3--3---------------
G|--0/5-------------------------5--------5-----------------------------2--2---------------
D|-------7--5----------------------7--5-----7--5-----5--7-----5--3--0--------0--0v--v--v--
A|------------------------------------------------7--------7------------------------------
E|----------------------------------------------------------------------------------------

http://www.guitartabcreator.com
Guitar Tab Creator is intended to store guitar tab created through the tool. It currently does not support in-line text editing. Any text you place in here will be lost. If you need to comment on your tab, please use the "Tab Notes" section located below.