Sound will begin in 5 seconds

Like A Road

Chords
01234567891011121314151617181920212223
E
B
G
D
A
E
B
0 1 2 3 4 5 6 7 8 9 10 11 12 13 14 15 16 17 18 19 20 21 22 23
Song Science #1: How Pros Use 6 Chords to Write Hit Songs
(/) Slide Up  (\) Slide Down  (h) Hammer On  (p) Pull Off  (b) Bend (r) Release (v) Vibrato

Stave 1:

E|-------------------------|--------------------------|------------------|-
B|-----------------------8-|-8v----10-9-8-7v----7-8p7-|------------------|-
G|-----------------7-7-9---|--------------------------|-7b9v----7b9-7-7v-|-
D|-----------5-7/9---------|--------------------------|------------------|-
A|-----5-5-7---------------|--------------------------|------------------|-
E|-6/7---------------------|--------------------------|------------------|-

Stave 2:

E|----------------------------------
B|-----------------------10-8-----8-
G|-7----------------9/10-10-9-----7-
D|---9-9-7p5-------------10-10----9-
A|-----------5h7--------------------
E|----------------------------------

Stave 3:

E|---------------------------|--------------------------------------|----------------|-
B|-8-5-7---5-----------------|--------------------------------------|------------7---|-
G|-------7---6-5b6-5b6---6-4-|--------------------------------------|--------------7-|-
D|---------------------7-----|-7p6p5---5----------------------------|-4---4-5v-7-----|-
A|---------------------------|-------7---7p6p5\4---4v---4-5v----4/5-|---5------------|-
E|---------------------------|-------------------5----5-------------|----------------|-

http://www.guitartabcreator.com
Guitar Tab Creator is intended to store guitar tab created through the tool. It currently does not support in-line text editing. Any text you place in here will be lost. If you need to comment on your tab, please use the "Tab Notes" section located below.