Sound will begin in 5 seconds

Ramble On Rose Europe 72 (acc)

01234567891011121314151617181920212223
E
B
G
D
A
E
B
0 1 2 3 4 5 6 7 8 9 10 11 12 13 14 15 16 17 18 19 20 21 22 23
Song Science #1: How Pros Use 6 Chords to Write Hit Songs
(/) Slide Up  (\) Slide Down  (h) Hammer On  (p) Pull Off  (b) Bend (r) Release (v) Vibrato

Stave 1:

E|-12b14-13r12-10-------10----10-------------|-10b12v-12----10b12v-12----10b12v-v-------|-
B|-------------------12----------12p10----12-|---------------------------------------10-|-
G|-------------------------------------------|------------------------------------------|-
D|-------------------------------------------|------------------------------------------|-
A|-------------------------------------------|------------------------------------------|-
E|-------------------------------------------|------------------------------------------|-

Stave 2:

E|-12b14-12b14-14-14r12-10----12b15----12b14-10v-v-v----|-12b14----12----------------|-
B|-------------------------12---------------------------|----------------12b13-14-12-|-
G|------------------------------------------------------|----------------------------|-
D|------------------------------------------------------|----------------------------|-
A|------------------------------------------------------|----------------------------|-
E|------------------------------------------------------|----------------------------|-

Stave 3:

E|--------------------------------------------|------10\0--------------------------10------|-
B|----10-----------10-------------------------|------------------------7-8-9-10------------|-
G|----------13b14v----14r13-13----13-13p12----|-9/11---------6/7v-v----------------------7/|-
D|--------------------------------------------|--------------------------------------------|-
A|--------------------------------------------|--------------------------------------------|-
E|--------------------------------------------|--------------------------------------------|-

Stave 4:

E|----------------------------------------|----12-12b14-12----12b13-12b13-12-12p10-|-
B|---9----9-10-11-11b12v-v-v-v-v-11----12b|-14-------------------------------------|-
G|-9--------------------------------------|----------------------------------------|-
D|----------------------------------------|----------------------------------------|-
A|----------------------------------------|----------------------------------------|-
E|----------------------------------------|----------------------------------------|-

Stave 5:

E|-10------------------------------------10---------------------------|-
B|----12p10----12b14-14r12----12p10-----------------------------------|-
G|----------------------------------9/11----11----9h11-9-7------------|-
D|---------------------------------------------------------9-7--------|-
A|----------------------------------------------------------------9\7-|-
E|--------------------------------------------------------------------|-

Stave 6:

E|-
B|-
G|-
D|-
A|-
E|-

http://www.guitartabcreator.com
Guitar Tab Creator is intended to store guitar tab created through the tool. It currently does not support in-line text editing. Any text you place in here will be lost. If you need to comment on your tab, please use the "Tab Notes" section located below.