Sound will begin in 5 seconds

Loser

Chords
01234567891011121314151617181920212223
E
B
G
D
A
E
B
0 1 2 3 4 5 6 7 8 9 10 11 12 13 14 15 16 17 18 19 20 21 22 23
Song Science #1: How Pros Use 6 Chords to Write Hit Songs
(/) Slide Up  (\) Slide Down  (h) Hammer On  (p) Pull Off  (b) Bend (r) Release (v) Vibrato

Stave 1:

E|-----------------------------------|-----------7-----------------7-|-8v-10b12r10-8-10v-v-|-
B|---------------------------8-9-10v-|-10-10v-10---10v-8-8----8-10---|---------------------|-
G|---------------7v----7-8-9---------|-------------------------------|---------------------|-
D|-5/7-9-10-9-10----10---------------|-------------------------------|---------------------|-
A|-----------------------------------|-------------------------------|---------------------|-
E|-----------------------------------|-------------------------------|---------------------|-

Stave 2:

E|-10b12----10b12-10b12v-10-8v-|-10-8-----|---------------------|-
B|-----------------------------|------10v-|-----8---------------|-
G|-----------------------------|----------|-7/9---9\7-5---------|-
D|-----------------------------|----------|-------------7-5h6h7-|-
A|-----------------------------|----------|---------------------|-
E|-----------------------------|----------|---------------------|-

Stave 3:

E|--------------|--------------------|-----------10------8-----7-----5-------------------------|-
B|--------8---8-|-12b15r12v----10----|-10v---------------------------------7-----5-----3-----1-|-
G|-9--------9-7-|-----------------12-|-----10/11----11\9---9\7---7\5---------------------------|-
D|-10v------9---|--------------------|---------------------------------5/7---7\5---5\4---4\2---|-
A|--------------|--------------------|---------------------------------------------------------|-
E|--------------|--------------------|---------------------------------------------------------|-

Stave 4:

E|-----8---7v------------------------|---------------------------------
B|-------8----8--------10-------8----|---------------------8-9-10v-v-v-
G|-8/9----------9---------9-------7v-|-------------5-7-8/9-------------
D|----------------9/10------8/9------|-------5-6-7---------------------
A|-----------------------------------|-5-6-7---------------------------
E|-----------------------------------|---------------------------------

http://www.guitartabcreator.com
Guitar Tab Creator is intended to store guitar tab created through the tool. It currently does not support in-line text editing. Any text you place in here will be lost. If you need to comment on your tab, please use the "Tab Notes" section located below.