Sound will begin in 5 seconds

Jack-A-Roe (Shady Grove transcribed to Am)

Chords
01234567891011121314151617181920212223
E
B
G
D
A
E
B
0 1 2 3 4 5 6 7 8 9 10 11 12 13 14 15 16 17 18 19 20 21 22 23
Song Science #1: How Pros Use 6 Chords to Write Hit Songs
(/) Slide Up  (\) Slide Down  (h) Hammer On  (p) Pull Off  (b) Bend (r) Release (v) Vibrato

Stave 1:

E|----------------------------------------------------10-10----10-10----10-|-
B|----------------------8-----8-10p8---8-10p8---------9--9-----9--9-----9--|-
G|------------5-7/9v------8h9--------9--------9v-v-------------------------|-
D|-5-6-7-7v-7--------------------------------------------------------------|-
A|-------------------------------------------------------------------------|-
E|-------------------------------------------------------------------------|-

Stave 2:

E|-8p7----------------------------------------------------------------|-
B|-----10-8-10p8--------8-----8---------------------------------------|-
G|---------------9-7------7h9---9p7\5-7p5---5-----0v-v----------------|-
D|----------------------------------------7---5h7-----------5----5v-v-|-
A|--------------------------------------------------------7-----------|-
E|--------------------------------------------------------------------|-

Stave 3:

E|----------------------------------------|-------------------------------------|-
B|----------------------------------------|-------------------------------------|-
G|----------------------------------------|-------2-2-------------2----2-0-2-2v-|-
D|-5/7v----7-7-6-5----6---------------7\0-|-1h2-2-----2-1-2---------------------|-
A|-------------------------7----7-6-7-----|-----------------3-3-0---------------|-
E|----------------------------------------|-------------------------------------|-

Stave 4:

E|-------------------------------------8-7-8p7----10p8\7v------7--------|-
B|--------------------8-10v----10-9-10---------10------------9---10-10v-|-
G|----------------7-9---------------------------------------------------|-
D|-2-7v----7-9-10-------------------------------------------------------|-
A|----------------------------------------------------------------------|-
E|----------------------------------------------------------------------|-

Stave 5:

E|-15-13-12----13-12-10-12-10-------10p8-7-8v----------------------------------------|-
B|----------------------------13-----------------10-8---8v-8-10p8---8-----10-9-10v-v-|-
G|----------------------------------------------------9-----------9---8p7------------|-
D|-----------------------------------------------------------------------------------|-
A|-----------------------------------------------------------------------------------|-
E|-----------------------------------------------------------------------------------|-

Stave 6:

E|----------------7-8---------------------------|---------------------|-
B|-10v----10-9-10-----10-8-9---9----------------|---------------------|-
G|---------------------------9---9-8-7----------|-----2-------------2-|-
D|-------------------------------------10-7v----|-1h2---2-1-0-----2---|-
A|----------------------------------------------|-------------3-0-----|-
E|----------------------------------------------|---------------------|-

http://www.guitartabcreator.com
Guitar Tab Creator is intended to store guitar tab created through the tool. It currently does not support in-line text editing. Any text you place in here will be lost. If you need to comment on your tab, please use the "Tab Notes" section located below.