Sound will begin in 5 seconds

It's All Over Now Baby Blue

01234567891011121314151617181920212223
E
B
G
D
A
E
B
0 1 2 3 4 5 6 7 8 9 10 11 12 13 14 15 16 17 18 19 20 21 22 23
Song Science #1: How Pros Use 6 Chords to Write Hit Songs
(/) Slide Up  (\) Slide Down  (h) Hammer On  (p) Pull Off  (b) Bend (r) Release (v) Vibrato

Stave 1:

E|------------------------------------|--------------------------------------------------------------------------------------------------|--
B|------------------------------------|-------------------------------------------------------------------------------10/12-----12p10p9--|--
G|--11--11-----9--9-------------------|----------------------------------------------9--11------9--11------9--11--12---------------------|--
D|----------------------12--12p11--9--|-------------9--11------9--11--12--9--11--12---------12---------12--------------------------------|--
A|------------------------------------|--12-----12---------12----------------------------------------------------------------------------|--
E|------------------------------------|--------------------------------------------------------------------------------------------------|--

Stave 2:

E|---------10-----10--12-----14--|--14h15p14\12-----10--12--12/14--10v-----b12r12p10p9--10--10p9------9--
B|--10---------------------------|----------------------------------------------------------------12-----
G|-------------------------------|-----------------------------------------------------------------------
D|-------------------------------|-----------------------------------------------------------------------
A|-------------------------------|-----------------------------------------------------------------------
E|-------------------------------|-----------------------------------------------------------------------

Stave 3:

E|--------------------------------------------------------------------------------------|-------------------------------
B|--12--10--12p11p10\8-----10p9p8\7-----7h8p7---------------7--10--8--7--------7--------|--7----------------------------
G|---------------------------------------------7v--------7---------------9--7-----7--9--|-----7-----6--7--9--9p7p6--7v--
D|----------------------------------------------------7---------------------------------|--------9----------------------
A|--------------------------------------------------------------------------------------|-------------------------------
E|--------------------------------------------------------------------------------------|-------------------------------

Stave 4:

E|------------------7--|--7------------15-----14p12\10--12--10p9------9--|--9h10-------------------------10v--
B|---------------8-----|--------12/15-----------------------------12-----|-----------10\9\8-------------------
G|--7/9-------7--------|-------------------------------------------------|-------------------------9/11-------
D|-------7h9-----------|-------------------------------------------------|------------------------------------
A|---------------------|-------------------------------------------------|------------------------------------
E|---------------------|-------------------------------------------------|------------------------------------

Stave 5:

E|--
B|--
G|--
D|--
A|--
E|--

http://www.guitartabcreator.com
Guitar Tab Creator is intended to store guitar tab created through the tool. It currently does not support in-line text editing. Any text you place in here will be lost. If you need to comment on your tab, please use the "Tab Notes" section located below.