Sound will begin in 5 seconds

Grateful Dawg

Chords
01234567891011121314151617181920212223
E
B
G
D
A
E
B
0 1 2 3 4 5 6 7 8 9 10 11 12 13 14 15 16 17 18 19 20 21 22 23
Song Science #1: How Pros Use 6 Chords to Write Hit Songs
(/) Slide Up  (\) Slide Down  (h) Hammer On  (p) Pull Off  (b) Bend (r) Release (v) Vibrato

Stave 1:

E|------------------|----------------|--------------------|-5----5-----|-
B|------------------|----------------|--------------------|-5----5-5---|-
G|----------------5-|-----5----------|--------------------|-6----6-6-6-|-
D|----3-0---3-5/7---|-6-7---6p5-3----|--------3----5-6-7v-|-5----5-5-5-|-
A|-/5-----5---------|-------------5v-|-5----5-------------|-7----7---7-|-
E|------------------|----------------|--------------------|-5----------|-

Stave 2:

E|------------------6p5-|---------------|-----------------|----------------|-
B|-8-6-5---5------------|-8-6---5-----6-|-----------------|----------------|-
G|-------7---6-7--------|-----7---6h7---|-7p6-----5-6-----|---5------------|-
D|----------------------|---------------|-----7-7-----7-5-|-6---6----5-6-5-|-
A|----------------------|---------------|-----------------|----------------|-
E|----------------------|---------------|-----------------|----------------|-

Stave 3:

E|-------------------|-------------|-
B|-------------------|-------------|-
G|-------------------|----5-6h7-7v-|-
D|-6p5-3-3/5-----5-6-|-7v----------|-
A|-----------7-8-----|-------------|-
E|-------------------|-------------|-

Stave 4:

E|-----------------------------|------10----------|--------------
B|---------5h6---6-8----7-8/10-|-8h10----10-13p10-|-13/14v-v-v-v-
G|-6h7-6-7-----7---------------|------------------|--------------
D|-----------------------------|------------------|--------------
A|-----------------------------|------------------|--------------
E|-----------------------------|------------------|--------------

Stave 5:

E|-8/10----10-13-10----13-10\8-|----10-------------------|----------------------|-
B|-----------------------------|-11----11----------------|----------------------|-
G|-----------------------------|----------12-11-10-------|----12-------12-------|-
D|-----------------------------|-------------------12-13/|-14----13-14----13-14-|-
A|-----------------------------|-------------------------|----------------------|-
E|-----------------------------|-------------------------|----------------------|-

Stave 6:

E|----------------------------|-------------------------|---------------------|-
B|----------------------------|-------------------------|---------------------|-
G|-12-13-14-12----------12----|-------------------------|---------------------|-
D|-------------13-14-14----14\|-12-11-12p10----10-------|-10-------10-12v-v-v-|-
A|----------------------------|-------------12----11-12-|----11-12------------|-
E|----------------------------|-------------------------|---------------------|-

Stave 7:

E|----------------------|----------------------|-------------------------|--------------------------|-
B|-------12-------12----|-------12----13-12-13-|-12-13p12----12----------|-12-----------------------|-
G|-------------12----12-|----12----12----------|----------14----14-12-14-|----14-13-12-11-----------|-
D|-10/12----12----------|-12-------------------|-------------------------|----------------12v-v-v-v-|-
A|----------------------|----------------------|-------------------------|--------------------------|-
E|----------------------|----------------------|-------------------------|--------------------------|-

Stave 8:

E|----------------------------------------|--------------------------------------------
B|-12----------12----------12----12----13-|-12-13-12----12-----------------------------
G|----12----12----12----12----12----12----|----------14----14-13-12-11----11----14-12v-
D|-------12----------12-------------------|----------------------------12--------------
A|----------------------------------------|--------------------------------------------
E|----------------------------------------|--------------------------------------------

Stave 9:

E|-------------------------------------------------|-----------------------------------------
B|----------12----------12----------12----13-12-13-|-15-13-12----13p12----12-----------------
G|-------12----12----12----12----12----12----------|----------14-------14----14-13-12-11-----
D|-11h12----------12----------12-------------------|-------------------------------------12v-
A|-------------------------------------------------|-----------------------------------------
E|-------------------------------------------------|-----------------------------------------

Stave 10:

E|-------------------------|----------------------|-
B|-------12----------12----|-------12----13-12-13-|-
G|----------12----12----12-|----12----12----------|-
D|-10/12-------12----------|-12-------------------|-
A|-------------------------|----------------------|-
E|-------------------------|----------------------|-

Stave 11:

E|----------------------|---------8-------|---------9--------9-|---------------------
B|-15-13-12----12-13-10-|-12-9/10---------|-----8----------8---|--------10-----------
G|----------12----------|-----------9b10v-|-7/9---9------9-----|-9-9/10----10v-v-v-v-
D|----------------------|-----------------|--------------------|---------------------
A|----------------------|-----------------|--------------------|---------------------
E|----------------------|-----------------|--------------------|---------------------

Stave 12:

E|-
B|-
G|-
D|-
A|-
E|-

http://www.guitartabcreator.com
Guitar Tab Creator is intended to store guitar tab created through the tool. It currently does not support in-line text editing. Any text you place in here will be lost. If you need to comment on your tab, please use the "Tab Notes" section located below.