Sound will begin in 5 seconds

Gomorrah accoustic

01234567891011121314151617181920212223
E
B
G
D
A
E
B
0 1 2 3 4 5 6 7 8 9 10 11 12 13 14 15 16 17 18 19 20 21 22 23
Song Science #1: How Pros Use 6 Chords to Write Hit Songs
(/) Slide Up  (\) Slide Down  (h) Hammer On  (p) Pull Off  (b) Bend (r) Release (v) Vibrato

Stave 1:

E|---------------------------------------------------------------------
B|---------------------------------------------------8v----7b8r7-6v----
G|---------4---5----4h5p4-6b7r6-5-4----4-4b5r4-5h6h7-------------------
D|-------5---5---------------------------------------------------------
A|-4/5-5---------------------------------------------------------------
E|---------------------------------------------------------------------

Stave 2:

E|-----------------------|----------------------------------------
B|-8---------------------|--------5-6----5--------5---------------
G|---9r7-9r7-5----5----5-|-5----7----------7----5---3b4r3---------
D|-----------------------|--------------------------------5-------
A|-----------------------|----------------------------------5-3-2-
E|-----------------------|----------------------------------------

Stave 3:

E|----------------------------------------------------------------------------------
B|-----------3v-5p3---3b4-2v--------------------------------------------------------
G|-----0-2/4--------4---------------------------------------------------------------
D|-1h2--------------------------7b9r7-5h7p5-----5v-8p7-5-----5----5-5-7p5-7-5-------
A|------------------------------------------5h7----------5h7------------------------
E|----------------------------------------------------------------------------------

Stave 4:

E|---------------------------------------------------
B|-7b8----8-6b7---8-7b8-8v-6---8-7b8-8/12-10-12v-v-v-
G|--------------7------------7-----------------------
D|---------------------------------------------------
A|---------------------------------------------------
E|---------------------------------------------------

http://www.guitartabcreator.com
Guitar Tab Creator is intended to store guitar tab created through the tool. It currently does not support in-line text editing. Any text you place in here will be lost. If you need to comment on your tab, please use the "Tab Notes" section located below.