Sound will begin in 5 seconds

Gomorrah (acc) 2

Chords
01234567891011121314151617181920212223
E
B
G
D
A
E
B
0 1 2 3 4 5 6 7 8 9 10 11 12 13 14 15 16 17 18 19 20 21 22 23
Song Science #1: How Pros Use 6 Chords to Write Hit Songs
(/) Slide Up  (\) Slide Down  (h) Hammer On  (p) Pull Off  (b) Bend (r) Release (v) Vibrato

Stave 1:

E|-----------------------------------------------------------------|------------------|--
B|-----------------------------------------------------------------|------------------|--
G|----------------------------------------------7-----7------------|---------------7--|--
D|--7/9--9-----9--7--10--9-----10--9--10-----9-----------10--7/9v--|--9--7--9--10-----|--
A|-----------------------------------------------------------------|------------------|--
E|-----------------------------------------------------------------|------------------|--

Stave 2:

E|---------------------------------------------------------------------------------
B|----------8-------------8--------------10------------12--13--13-----12--10-------
G|--5/7--7-----9--7--7/9-----------9/10---------11/12-------------------------12v--
D|---------------------------------------------------------------------------------
A|---------------------------------------------------------------------------------
E|---------------------------------------------------------------------------------

Stave 3:

E|------------------------------------------------------------------------
B|-------------------------------------------10b12--12--12--12--12r10-----
G|-----------7--9--9v-----9--7--9b9p8p7--7v-------------------------------
D|--7/9--10---------------------------------------------------------------
A|------------------------------------------------------------------------
E|------------------------------------------------------------------------

Stave 4:

E|---------------------------------------------------------------------------
B|--10--8--10p8--10v-----10p9p8--10--10v-----8--10--8--10b8--10b8--10b12--8--
G|---------------------------------------------------------------------------
D|---------------------------------------------------------------------------
A|---------------------------------------------------------------------------
E|---------------------------------------------------------------------------

Stave 5:

E|----------10-------------------------
B|--12--13------13-----12b12b8v--v--v--
G|-------------------------------------
D|-------------------------------------
A|-------------------------------------
E|-------------------------------------

Stave 6:

E|-------------------------------------|---------------------------------------------
B|-------------------------------------|--8v-----10v-----11b13r11--10----------------
G|----------------9b11-----------------|----------------------------------10b12v--v--
D|--8b9--9b10--------------9b10--10r9--|---------------------------------------------
A|-------------------------------------|---------------------------------------------
E|-------------------------------------|---------------------------------------------

Stave 7:

E|------------------------------------|-----------------------------------------------------------|--
B|------8------------8------------8v--|----------8------------------------------------------------|--
G|--9v-----9v--9b11--------9p8p7------|-----------------------------------------------------------|--
D|------------------------------------|--9b11r9--------10b12r10--10------------10-----10------10--|--
A|------------------------------------|------------------------------12b14r12-------------12------|--
E|------------------------------------|-----------------------------------------------------------|--

Stave 8:

E|----------------------------------------
B|----------------------------------------
G|----------------------------------------
D|--12--10-----9b10--10r9-----9\7-----5v--
A|----------------------------------------
E|----------------------------------------

Stave 9:

E|---------------------------------7--------------7-----|----------------------------------|-------------------
B|------------------------------8-----8--------8-----8--|--8--8-----10--10b11--11b13--10v--|--10--8-----10--8--
G|---------------------------7--------------7-----------|----------------------------------|-------------------
D|--5v-----5--5v-----5--7/9-----------------------------|----------------------------------|-------------------
A|------------------------------------------------------|----------------------------------|-------------------
E|------------------------------------------------------|----------------------------------|-------------------

Stave 10:

E|-------------------------------------------------|-------------------------------------------|--
B|--------8-----------11b13--10-----8--------------|----------10---------------------10--------|--
G|--9b11-----11r9----------------------9--7--------|----------10---------------------10--------|--
D|-------------------------------------------8/9v--|----------10---------------------10--------|--
A|-------------------------------------------------|--10--12--10-----10--12--10--12------------|--
E|-------------------------------------------------|-------------------------------------------|--

Stave 11:

E|--13--
B|------
G|------
D|------
A|------
E|------

http://www.guitartabcreator.com
Guitar Tab Creator is intended to store guitar tab created through the tool. It currently does not support in-line text editing. Any text you place in here will be lost. If you need to comment on your tab, please use the "Tab Notes" section located below.