Sound will begin in 5 seconds

Gomorrah (acc)

01234567891011121314151617181920212223
E
B
G
D
A
E
B
0 1 2 3 4 5 6 7 8 9 10 11 12 13 14 15 16 17 18 19 20 21 22 23
Song Science #1: How Pros Use 6 Chords to Write Hit Songs
(/) Slide Up  (\) Slide Down  (h) Hammer On  (p) Pull Off  (b) Bend (r) Release (v) Vibrato

Stave 1:

E|--------------------------------|-----------------------------|---------------------
B|--------------------------------|----------------8-6-8p6-6-5v-|-------------------5-
G|-2/4v----2-4-5v----5-5-5b7-5-4v-|-4-5-4----7p5-7--------------|-5-4-5----4-5----5---
D|--------------------------------|-----------------------------|---------------------
A|--------------------------------|-----------------------------|---------------------
E|--------------------------------|-----------------------------|---------------------

Stave 2:

E|----------------------------------------------------------------------|-
B|-5--------------------------------------------------------------------|-
G|---5-5----7/9-7\5----7-7-9-7-----------10-9-7-------------------------|-
D|-----------------------------9----9b10--------9b10b10r9-7----7b9-7-5v-|-
A|----------------------------------------------------------------------|-
E|----------------------------------------------------------------------|-

Stave 3:

E|---------------------------------|--
B|---------------------------------|-\
G|---------------------------------|--
D|-5-7-5-7-5----7/8-7----7-5----5v-|--
A|---------------------------------|--
E|---------------------------------|--

Stave 4:

E|----------------------------------|-------------------------------|-------------------------
B|----------------------------------|-------10p9p8------------------|----------5-5------------
G|---------------7v----7-9-7-7p5-4v-|-5/7----------7----5-5-5-4-4---|-5----3/5-----3/5-7-7----
D|---------5-7/9--------------------|-----9-----------------------7-|-------------------------
A|-3/5-7-8--------------------------|-------------------------------|-------------------------
E|----------------------------------|-------------------------------|-------------------------

Stave 5:

E|---------|-------13-12-12-13b15r13-15----r13-10-------10-----------------------------
B|---------|-12/13--------------------------------12b14----12-12-10----------------10v-
G|-2/4-5-5-|--------------------------------------------------------12----12p10-12-----
D|---------|---------------------------------------------------------------------------
A|---------|---------------------------------------------------------------------------
E|---------|---------------------------------------------------------------------------

Stave 6:

E|-----------|----------------------------------10--------------------------
B|-13b13b12v-|----10-12----10-12-13-12-10-12-------13----12b12b12-----------
G|-----------|-12-------------------------------------------------12v-v-v-v-
D|-----------|--------------------------------------------------------------
A|-----------|--------------------------------------------------------------
E|-----------|--------------------------------------------------------------

http://www.guitartabcreator.com
Guitar Tab Creator is intended to store guitar tab created through the tool. It currently does not support in-line text editing. Any text you place in here will be lost. If you need to comment on your tab, please use the "Tab Notes" section located below.