Sound will begin in 5 seconds

Cumberland Blues GGLesson (2ndx thru ACC)

01234567891011121314151617181920212223
E
B
G
D
A
E
B
0 1 2 3 4 5 6 7 8 9 10 11 12 13 14 15 16 17 18 19 20 21 22 23
Song Science #1: How Pros Use 6 Chords to Write Hit Songs
(/) Slide Up  (\) Slide Down  (h) Hammer On  (p) Pull Off  (b) Bend (r) Release (v) Vibrato

Stave 1:

E|-------15-13v-|-13-12-10----------10v--------------------------------------------------------------------
B|-10/12--------|----------13-11-13-----13-12-11-13-12-11----------11-12-11----------11v-------------------
G|--------------|-----------------------------------------12-11-12----------12-11-12-----12-11-10-12-11-10-
D|--------------|------------------------------------------------------------------------------------------
A|--------------|------------------------------------------------------------------------------------------
E|--------------|------------------------------------------------------------------------------------------

Stave 2:

E|-------------------------------|----------------------------------------------------------------|-
B|-------------------------------|-------------------------------------------------13----11-13----|-
G|----------10v-12-10------------|-------------------------------10----10-12-11-12----12-------12-|-
D|-12-11-12-----------12\11-9----|-9----9-10-9-10-11-10-12p11-12----12----------------------------|-
A|----------------------------10-|----------------------------------------------------------------|-
E|-------------------------------|----------------------------------------------------------------|-

Stave 3:

E|-------------|-------------------------------|----------------------------|----------------|-
B|----11-13----|----11-13-13b15-13-11----------|-11-13-13b15-13-11----------|-13----11-13----|-
G|-12-------12-|-12-------------------12-11-12-|-------------------12-11-12-|----12-------12-|-
D|-------------|-------------------------------|----------------------------|----------------|-
A|-------------|-------------------------------|----------------------------|----------------|-
E|-------------|-------------------------------|----------------------------|----------------|-

Stave 4:

E|----------10-10----------------|------------------------------------------------------|-
B|----------------14-13-11----13-|-11b12-------------11v-11v-------------11v-11v-11v----|-
G|-12-11-12----------------12----|-------12-11-12-12---------12-11-12-12-------------12-|-
D|-------------------------------|------------------------------------------------------|-
A|-------------------------------|------------------------------------------------------|-
E|-------------------------------|------------------------------------------------------|-

Stave 5:

E|--------------------------------|-------13-------13-------13-------13-|-
B|-13v-------11-13-13b15-13-11----|-13b15----15r13----15r13----15r13----|-
G|--------12-------------------12-|-------------------------------------|-
D|--------------------------------|-------------------------------------|-
A|--------------------------------|-------------------------------------|-
E|--------------------------------|-------------------------------------|-

Stave 6:

E|-------10-------10-------10-------10-------10-------------|-13v-v----13-13-13-13-|-|-
B|-13b15----15r13----15r13----15r13----15r13----15r13-11v-v-|----------------------|-|-
G|----------------------------------------------------------|----------------------|-|-
D|----------------------------------------------------------|----------------------|-|-
A|----------------------------------------------------------|----------------------|-|-
E|----------------------------------------------------------|----------------------|-|-

Stave 7:

E|-13-13-13-13-13v-|-13-13-13-13-13-13-13-13-13-13-13-13-13-13-13-13b15v-v-|-
B|-----------------|-------------------------------------------------------|-
G|-----------------|-------------------------------------------------------|-
D|-----------------|-------------------------------------------------------|-
A|-----------------|-------------------------------------------------------|-
E|-----------------|-------------------------------------------------------|-

Stave 8:

E|-15r13-10----|----10-----------|-----------------------------------|-
B|----------13-|-11----11v-------|-----------------------------------|-
G|-------------|-----------12-10-|-10----10h12----10-----------------|-
D|-------------|-----------------|----12-------------12\10-10b8v-----|-
A|-------------|-----------------|-------------------------------10v-|-
E|-------------|-----------------|-----------------------------------|-

Stave 9:

E|---------|-------------------|----------------------------------------------|-|-
B|---------|-------------------|----------------------------------------------|-|-
G|---------|-------10----10h12-|-12-12-12----12-12-12----12-12-12p11p10-------|-|-
D|-8v----8-|-10/12----12-------|----------------------------------------12----|-|-
A|----10---|-------------------|-------------------------------------------10-|-|-
E|---------|-------------------|----------------------------------------------|-|-

Stave 10:

E|---------|----------------------------|-
B|---------|----------------------------|-
G|---------|-------10----10-12\0v-v-v-v-|-
D|-8v----8-|-10/12----12----------------|-
A|----10---|----------------------------|-
E|---------|----------------------------|-

http://www.guitartabcreator.com
Guitar Tab Creator is intended to store guitar tab created through the tool. It currently does not support in-line text editing. Any text you place in here will be lost. If you need to comment on your tab, please use the "Tab Notes" section located below.