Sound will begin in 5 seconds

China Cat Europe 72

01234567891011121314151617181920212223
E
B
G
D
A
E
B
0 1 2 3 4 5 6 7 8 9 10 11 12 13 14 15 16 17 18 19 20 21 22 23
Song Science #1: How Pros Use 6 Chords to Write Hit Songs
(/) Slide Up  (\) Slide Down  (h) Hammer On  (p) Pull Off  (b) Bend (r) Release (v) Vibrato

Stave 1:

E|----------------------------|------------------------|-----------------------------------------|-
B|-10b12-12-12-12r10p8------8-|-8-8--------------------|-10b12-12-12-12r10p8-10----10p8----------|-
G|------------------------7---|-----9p7----------7h9-7-|--------------------------------9----7h9-|-
D|----------------------------|------------------------|-----------------------------------------|-
A|----------------------------|------------------------|-----------------------------------------|-
E|----------------------------|------------------------|-----------------------------------------|-

Stave 2:

E|---------------------------------|--------------------------|------------------------
B|-8-------------------------------|--------------------------|------------------------
G|---9p7---7-9p7---7---------------|--------------------------|------------------------
D|-------9-------9---9\7-9r7-7-5---|-5p4------4-5p4-4-5/7-7-7p|-5---4-5p4--------------
A|-------------------------------7-|--------5-----------------|---5-------5------3-5p3-
E|---------------------------------|--------------------------|----------------5-------

Stave 3:

E|----------------------------------------------|---------------------------------|-
B|----------------------------------------------|---------------------------------|-
G|-11-------12----------------------------------|---------------------------------|-
D|----12----------12-10----10h12-10-------------|---------------------------------|-
A|----------------------12----------12----10----|-8-------------8-9h10------------|-
E|----------------------------------------------|------10----10--------------8v-v-|-

Stave 4:

E|------------------------------|-----------------------------------|-
B|----------------------------7b|-8v-v-8r7-5------------------------|-
G|-------------------4------4---|------------7p4------4-7-7p4-------|-
D|---------5-----5-7------7-----|-------------------5---------------|-
A|-----5-7---5-7----------------|-----------------------------------|-
E|-6-7--------------------------|-----------------------------------|-

Stave 5:

E|------------------------------------|---------------------------------|-
B|-----7b8-8-8r7-5--------10b12-12r10-|-8-------------------------------|-
G|-2\4-------------7----7-------------|---9p7---7h9-7-5-----------------|-
D|------------------------------------|-------9---------9r7p5---5-7p5-4-|-
A|------------------------------------|-----------------------7---------|-
E|------------------------------------|---------------------------------|-

Stave 6:

E|----------------------8-------8-|----7-8-7---------7-8-10p8p7h8----8-|-
B|------------7-8/10------10------|----------10-9-10--------------10---|-
G|-11-------7---------------------|------------------------------------|-
D|--------------------------------|------------------------------------|-
A|--------------------------------|------------------------------------|-
E|--------------------------------|------------------------------------|-

Stave 7:

E|-12-15p12----12----12-14-12b14v-v-14-14r12-10-10-|-8----8-10-12r10b8----|-8----------10-|-
B|----------13----13-------------------------------|---10--------------10-|---------------|-
G|-------------------------------------------------|----------------------|---------------|-
D|-------------------------------------------------|----------------------|---------------|-
A|-------------------------------------------------|----------------------|---------------|-
E|-------------------------------------------------|----------------------|---------------|-

Stave 8:

E|----------------------------------|---------------------10----------12h14-|-
B|--------10p9--------9h10-12----12-|---9-10p9---------10----------12-------|-
G|-------------11-9-----------------|-9--------11-9-11-------11/13----------|-
D|------------------9---------------|---------------------------------------|-
A|-5/7------------------------------|---------------------------------------|-
E|----------------------------------|---------------------------------------|-

Stave 9:

E|----------------------------------------|----------------------10-------12h14-|-
B|-9-------9h10p9-----------9h10-12----12-|---9h10p9----------10-------12-------|-
G|----------------11-9--------------------|-9--------11----11-------13----------|-
D|---------------------9------------------|-------------------------------------|-
A|----------------------------------------|-------------------------------------|-
E|----------------------------------------|-------------------------------------|-

Stave 10:

E|-10/12----12-12----12-12----12-12----12-12----12-10b11-|-12r11v-r10v-10-7----12-10-12\14-|-
B|-------------------------------------------------------|---------------------------------|-
G|-------------------------------------------------------|---------------------------------|-
D|-------------------------------------------------------|---------------------------------|-
A|-------------------------------------------------------|---------------------------------|-
E|-------------------------------------------------------|---------------------------------|-

Stave 11:

E|-14-14b16-------12-14----r14p12-12-14r14p12-|--------------------------------------|-
B|--------------------------------------------|--------------------------------------|-
G|--------------------------------------------|--------------------------------------|-
D|--------------------------------------------|--------------------------------------|-
A|--------------------------------------------|---------------9/11-9---------9-12p11-|-
E|--------------------------------------------|-2/7----7h9/11-----------9-11---------|-

Stave 12:

E|------------------------------|-------------11-14p11-----------------|-----------------------------------
B|------------------------------|-12-------12----------12--------------|-----------------------------------
G|------------------------------|----------------------------11-10\9-8-|-----------------------------------
D|----------------------11---11-|--------------------------------------|-9------9-11----11/13-13\11p9------
A|-9-9------9h11-9\7-------9----|--------------------------------------|---9h11-----------------------11-9-
E|-----9/11---------------------|--------------------------------------|-----------------------------------

Stave 13:

E|---------------------------------|-----------------|----------------------|-
B|-------------------7---7-9p7-----|-----------------|----------------------|-
G|-----------4---6/8---8-------8\6-|-8r6-4---4-6p4---|-2-------2/4v-v-v-v-v-|-
D|-4/6---------6-------------------|-------6-------6-|----------------------|-
A|---------------------------------|-----------------|----------------------|-
E|---------------------------------|-----------------|----------------------|-

http://www.guitartabcreator.com
Guitar Tab Creator is intended to store guitar tab created through the tool. It currently does not support in-line text editing. Any text you place in here will be lost. If you need to comment on your tab, please use the "Tab Notes" section located below.