Sound will begin in 5 seconds

China Cat accoustic

Chords
01234567891011121314151617181920212223
E
B
G
D
A
E
B
0 1 2 3 4 5 6 7 8 9 10 11 12 13 14 15 16 17 18 19 20 21 22 23
Song Science #1: How Pros Use 6 Chords to Write Hit Songs
(/) Slide Up  (\) Slide Down  (h) Hammer On  (p) Pull Off  (b) Bend (r) Release (v) Vibrato

Stave 1:

E|-----------------------------|--------------------------|----------------------------------------------|--
B|--10b12--12--12r10--8-----8--|--8--8v-------------------|--10b12--12--12p10--8--10v--10--8-------------|--
G|-----------------------7-----|---------9p7v-----7h9p7v--|-----------------------------------9--7--9p7--|--
D|-----------------------------|--------------------------|----------------------------------------------|--
A|-----------------------------|--------------------------|----------------------------------------------|--
E|-----------------------------|--------------------------|----------------------------------------------|--

Stave 2:

E|--------------------------------------------|-----------------------------------------------------|--
B|--8-----------------------------------------|--------------------------------------------10v--10--|--
G|-----9p7-----7--9-----7---------------------|--12\11-------------11--12--11v-----11--12-----------|--
D|----------9--------------9------9\7--5------|---------12-----12-----------------------------------|--
A|----------------------------10----------7v--|-----------------------------------------------------|--
E|--------------------------------------------|-----------------------------------------------------|--

Stave 3:

E|-----------------------------------------------------|--------------------------------------|--
B|-----------------------------------------------------|--------------------------------------|--
G|--12--11--12--11-------------------------------------|--10h11-------------------------------|--
D|------------------12------10v--12p10h12--12v-----12--|---------12------10h12p10-------------|--
A|----------------------12-----------------------------|-------------12------------12-----10--|--
E|-----------------------------------------------------|--------------------------------------|--

Stave 4:

E|--------------------------------|-----
B|--------------------------------|--7--
G|--------------------------------|--7--
D|--------------------------------|--7--
A|--9-----------------------------|--9--
E|-----10--10v--9--10--11--12-----|-----

Stave 5:

E|--
B|--
G|--
D|--
A|--
E|--

http://www.guitartabcreator.com
Guitar Tab Creator is intended to store guitar tab created through the tool. It currently does not support in-line text editing. Any text you place in here will be lost. If you need to comment on your tab, please use the "Tab Notes" section located below.