Sound will begin in 5 seconds

Chicago Blues Licks

01234567891011121314151617181920212223
E
B
G
D
A
E
B
0 1 2 3 4 5 6 7 8 9 10 11 12 13 14 15 16 17 18 19 20 21 22 23
Song Science #1: How Pros Use 6 Chords to Write Hit Songs
(/) Slide Up  (\) Slide Down  (h) Hammer On  (p) Pull Off  (b) Bend (r) Release (v) Vibrato

Stave 1:

E|----------12b14--12--11--10--------------------------------|-----------7--------------------------|--
B|--10--10---------------------13--10--13b15--13b14--13--10--|--------7-----10p7--10b12--10---------|--
G|-----------------------------------------------------------|--9b11-------------------------7v--v--|--
D|-----------------------------------------------------------|--------------------------------------|--
A|-----------------------------------------------------------|--------------------------------------|--
E|-----------------------------------------------------------|--------------------------------------|--

Stave 2:

E|--8--8b10--8--6--------6v--|--9p7--------9p7--------9p7--------9p7---------|--
B|-----------------8--8------|-------8----------8----------8----------8v--v--|--
G|---------------------------|-----------------------------------------------|--
D|---------------------------|-----------------------------------------------|--
A|---------------------------|-----------------------------------------------|--
E|---------------------------|-----------------------------------------------|--

Stave 3:

E|--
B|--
G|--
D|--
A|--
E|--

http://www.guitartabcreator.com
Guitar Tab Creator is intended to store guitar tab created through the tool. It currently does not support in-line text editing. Any text you place in here will be lost. If you need to comment on your tab, please use the "Tab Notes" section located below.