Sound will begin in 5 seconds

Althea Go2Heaven (acc)

Chords
01234567891011121314151617181920212223
E
B
G
D
A
E
B
0 1 2 3 4 5 6 7 8 9 10 11 12 13 14 15 16 17 18 19 20 21 22 23
Song Science #1: How Pros Use 6 Chords to Write Hit Songs
(/) Slide Up  (\) Slide Down  (h) Hammer On  (p) Pull Off  (b) Bend (r) Release (v) Vibrato

Stave 1:

E|---------|-------10----------------------|------------------------|-
B|-9-10-11-|-12-------12----10-12----8/9-9-|------8/9-10----9-10-11-|-
G|---------|-------------------------------|-9----------------------|-
D|---------|-------------------------------|------------------------|-
A|---------|-------------------------------|------------------------|-
E|---------|-------------------------------|------------------------|-

Stave 2:

E|-------10-----------------------|---------------------------------|-
B|-12-------12----10-12----8h9----|-10v-------10b12----9----10-9----|-
G|--------------------------------|------------------------------9v-|-
D|--------------------------------|---------------------------------|-
A|--------------------------------|---------------------------------|-
E|--------------------------------|---------------------------------|-

Stave 3:

E|-------------10--------------------------|------------------------------|-
B|-10/12----------12----10-12p10-8/9v-v----|-8/9v----9-10-------10-9------|-
G|-----------------------------------------|-------------------------9v-v-|-
D|-----------------------------------------|------------------------------|-
A|-----------------------------------------|------------------------------|-
E|-----------------------------------------|------------------------------|-

Stave 4:

E|-------------10----------------------------|-
B|-10/12----------12----10-12p10-7/9----9----|-
G|----------------------------------------9v-|-
D|-------------------------------------------|-
A|-------------------------------------------|-
E|-------------------------------------------|-

Stave 5:

E|--------------------------|-------------------|------------------------------|-
B|-10\12----11-12----10-8-9-|-8---8----10-------|-10-8-9-----------------------|-
G|--------------------------|---9---------------|--------9-8-7---9-7b9----7----|-
D|--------------------------|-------------------|--------------9------------9v-|-
A|--------------------------|-------------------|------------------------------|-
E|--------------------------|-------------------|------------------------------|-

Stave 6:

E|-----------------------------------------
B|-12r10-10-10r8-------9h10-9-8b9-9--------
G|------------------10--------------9-7v-v-
D|-----------------------------------------
A|-----------------------------------------
E|-----------------------------------------

Stave 7:

E|-------10-10r12v-|---10b12v-v-v----10----------------------------
B|-----------------|-9------------------12-12-------12p11p10-10-11-
G|-----------------|-----------------------------------------------
D|-----------------|-----------------------------------------------
A|-----------------|-----------------------------------------------
E|-----------------|-----------------------------------------------

Stave 8:

E|----------10-------------------------------|-------------9---------------------
B|-12----------12----11r10----8h10-8-8b9v----|-9------9-10---12-12-9-------------
G|-------------------------------------------|---9-------------------9-8----7-7v-
D|-------------------------------------------|-----------------------------------
A|-------------------------------------------|-----------------------------------
E|-------------------------------------------|-----------------------------------

Stave 9:

E|-----------------------------|---------------------|-
B|------10h12-------12-10-8h9v-|-8---8/9-12-10-------|-
G|-9/11------------------------|---9-----------------|-
D|-----------------------------|---------------------|-
A|-----------------------------|---------------------|-
E|-----------------------------|---------------------|-

Stave 10:

E|-9b10----10p9-----------------------------|------12-----------------------------|-
B|--------------12-12-11-10---8-10b12-12r10-|------------11p10------8-9-----------|-
G|--------------------------9-7-------------|-9/13-------------9--------9----7v-v-|-
D|------------------------------------------|-------------------------------------|-
A|------------------------------------------|-------------------------------------|-
E|------------------------------------------|-------------------------------------|-

Stave 11:

E|----------10-9---------|---------------------------|-
B|----11-12------11-10\9-|-8----9----10v-v-9-10p9----|-
G|-----------------------|------------------------9v-|-
D|-----------------------|---------------------------|-
A|-----------------------|---------------------------|-
E|-----------------------|---------------------------|-

Stave 12:

E|-------------10b11---------------------|-----------12p10-12----10b12-12r10-|-
B|-10----12-12-------12-12-12p11-10-8-9v-|-9---10-12-------------------------|-
G|---------------------------------------|---9-------------------------------|-
D|---------------------------------------|-----------------------------------|-
A|---------------------------------------|-----------------------------------|-
E|---------------------------------------|-----------------------------------|-

Stave 13:

E|-----------------------------|--------------------------|----------------------10--------------------------
B|-10/12-12v----10-12-------10-|-7/9----10v-v-v-v-v----10b|-12----12-12r10-10/12----10-12-11r10----8-8v------
G|-----------------------------|--------------------------|---------------------------------------------9v-v-
D|-----------------------------|--------------------------|--------------------------------------------------
A|-----------------------------|--------------------------|--------------------------------------------------
E|-----------------------------|--------------------------|--------------------------------------------------

Stave 14:

E|-
B|-
G|-
D|-
A|-
E|-

Stave 15:

E|------|----10----10------------------|----------------|-
B|-9-10-|-12----12-------12-11-11p10\9-|------9---10v-v-|-
G|------|------------------------------|----9---9-------|-
D|------|------------------------------|----------------|-
A|------|------------------------------|----------------|-
E|------|------------------------------|----------------|-

Stave 16:

E|-------12-11b12----10---------------------|-------------------------------------|-
B|-10/12----------------12p10----12r10-9-9v-|---8-9-11/12-10---8/9----------------|-
G|------------------------------------------|-9--------------9-----9---7-7-7v-v-v-|-
D|------------------------------------------|------------------------9------------|-
A|------------------------------------------|-------------------------------------|-
E|------------------------------------------|-------------------------------------|-

http://www.guitartabcreator.com
Guitar Tab Creator is intended to store guitar tab created through the tool. It currently does not support in-line text editing. Any text you place in here will be lost. If you need to comment on your tab, please use the "Tab Notes" section located below.