Sound will begin in 5 seconds

Althea GGL acc solo 1

Chords
01234567891011121314151617181920212223
E
B
G
D
A
E
B
0 1 2 3 4 5 6 7 8 9 10 11 12 13 14 15 16 17 18 19 20 21 22 23
Song Science #1: How Pros Use 6 Chords to Write Hit Songs
(/) Slide Up  (\) Slide Down  (h) Hammer On  (p) Pull Off  (b) Bend (r) Release (v) Vibrato

Stave 1:

E|----------------------------------------------------------------------------------------------
B|----------10-12v----10----10-12-------10h12p10-9-------12-------9------------10-12p10-10v-v-v-
G|-------11--------------11----------11------------11b13----11b13---13r11p9---------------------
D|-10/12--------------------------------------------------------------------11------------------
A|----------------------------------------------------------------------------------------------
E|----------------------------------------------------------------------------------------------

Stave 2:

E|-10p9----9-10-12-10-8b9----------12v----------10-------7------------------
B|------12----------------10--------------10b12----10b12---12r10p9----------
G|---------------------------11/13---------------------------------7/9v-v-v-
D|--------------------------------------------------------------------------
A|--------------------------------------------------------------------------
E|--------------------------------------------------------------------------

Stave 3:

E|-10-10v-------10p9----------------------------------------------------------------
B|-------------------12----------12-------------------------12----------------------
G|-----------11------------14b16----14p13-14p13----------13----14p13----14p13-------
D|----------------------------------------------14----14-------------14-14----14v-v-
A|----------------------------------------------------------------------------------
E|----------------------------------------------------------------------------------

Stave 4:

E|------10--------12-11b12---------------------------12-12\4-
B|---------12v------------------12r10p9----------------------
G|-9/11-----------------------9---------9----9-11/13---------
D|-----------------------------------------------------------
A|-----------------------------------------------------------
E|-----------------------------------------------------------

http://www.guitartabcreator.com
Guitar Tab Creator is intended to store guitar tab created through the tool. It currently does not support in-line text editing. Any text you place in here will be lost. If you need to comment on your tab, please use the "Tab Notes" section located below.